Led Zeppelin

Bring It On Home- The Whole Song Bass Tabs



More from Led Zeppelin

Led Zeppelin Tabs
Led Zeppelin Chords
Led Zeppelin Bass
Led Zeppelin Lyrics




intro 1
|----------------------------|
|--------11--11--9--9-----9--|
|--7--7----------------11----|
|--0--0----------------------|

intro 2
|--------11--11--9--9-----9--|
|--7--7----------------11----|
|----------------------------|
|----------------------------|

intro ending (thats one long intro)
|--------13--13--11--11----------11--------11--11--9--9---------9--|
|--9--9------------------13--11------7--7----------------11--9-----|
|------------------------------------------------------------------|
|------------------------------------------------------------------|

1st verse
|-----------------------------|--------------------------|
|-------------11--9p8-9p8-----|-------------11--9p8-9-9--|
|------7-9-----------------9--|------7-9-----------------|
|--7-9-----0------------------|--7-9-----0---------------|

2nd verse
|--------------------|
|--11--9--7----------|
|------------5\7--5--|
|--------------------|



Get this song at amazon.com      Ebay     Ringtones Ringtones  


Learn to play: Songwriting, Piano, Harmonica, Guitar
More Led Zeppelin lyrics available at Muzikum

Related Led Zeppelin Bass Tabs

Kashmir (the Right Way!) bass
Archilles Last Stand (fixed) bass
Kashmir (correct) bass
I Cant Quit You Baby bass
Ozone Baby bass
The Lemon Song bass
Most High bass
Black Dog(100% Correct) bass
Kashmir bass
The Rain Song bass
Ramble On (complete) bass
Trampled Under Foot bass
Lemon Song (main Riff) bass
Babe, Im Going To Leave You bass
California Girls bass
Night Flight bass
Good Times Bad Times bass
In My Time Of Dying bass
How Many More Times bass
The Wanton Song bass


Guitar Tabs









All tabs are property and copyright of their owners. All tabs provided for educational purposes only. Privacy Policy, DMCA