Led Zeppelin

Bring It On Home Alternate Version Bass Tabs



More from Led Zeppelin

Led Zeppelin Tabs
Led Zeppelin Chords
Led Zeppelin Bass
Led Zeppelin Lyrics



In the recorded version there should be no bass until the 54 bar. But instead I added a
bass line so you dont have to sit waiting to play.

Standard Tuning

Bring It On Home


Led Zeppelin
Bass Guitar



Q E Q E Q E E E E
G||--------------------------------------|
D||----------11----11--9----9---------9--|
A||--7----7--------------------9--11-----|
E||--0----0------------------------------|


Q E Q E Q E E E E Q E Q E Q E E E E
--------------------------------------|--------------------------------------|
----------11----11--9----9---------9--|----------11----11--9----9---------9--|
--7----7--------------------9--11-----|--7----7--------------------9--11-----|
--0----0------------------------------|--0----0------------------------------|


Q E Q E Q E E E E Q E Q E Q E E E E
--------------------------------------|--------------------------------------|
----------11----11--9----9---------9--|----------11----11--9----9---------9--|
--7----7--------------------9--11-----|--7----7--------------------9--11-----|
--0----0------------------------------|--0----0------------------------------|


Q E Q E Q E E E E Q E Q E Q E E E E
--------------------------------------|--------------------------------------|
----------11----11--9----9---------9--|----------11----11--9----9---------9--|
--7----7--------------------9--11-----|--7----7--------------------9--11-----|
--0----0------------------------------|--0----0------------------------------|


Q E Q E Q E E E E Q E Q E Q E E E E
--------------------------------------|--------------------------------------|
----------11----11--9----9---------9--|----------11----11--9----9---------9--|
--7----7--------------------9--11-----|--7----7--------------------9--11-----|
--0----0------------------------------|--0----0------------------------------|


Q E Q E Q E E E E Q E Q E Q E E E E
--------------------------------------|--------------------------------------|
----------11----11--9----9---------9--|----------11----11--9----9---------9--|
--7----7--------------------9--11-----|--7----7--------------------9--11-----|
--0----0------------------------------|--0----0------------------------------|


Q E Q E Q E E E E Q E Q E Q E E E E
--------------------------------------|--------------------------------------|
----------11----11--9----9---------9--|----------11----11--9----9---------9--|
--7----7--------------------9--11-----|--7----7--------------------9--11-----|
--0----0------------------------------|--0----0------------------------------|


Q E Q E Q E E E E Q E Q E Q E E E E
--------------------------------------|--------------------------------------|
----------11----11--9----9---------9--|----------11----11--9----9---------9--|
--7----7--------------------9--11-----|--7----7--------------------9--11-----|
--0----0------------------------------|--0----0------------------------------|


Q E Q E Q E E E E Q E Q E Q E E E E
--------------------------------------|--------------------------------------|
----------11----11--9----9---------9--|----------11----11--9----9---------9--|
--7----7--------------------9--11-----|--7----7--------------------9--11-----|
--0----0------------------------------|--0----0------------------------------|


Q E Q E Q E E E E Q E Q E Q E E E E
--------------------------------------|--------------------------------------|
----------11----11--9----9---------9--|----------11----11--9----9---------9--|
--7----7--------------------9--11-----|--7----7--------------------9--11-----|
--0----0------------------------------|--0----0------------------------------|


Q E Q E Q E E E E Q E Q E Q E E E E
--------------------------------------|--------------------------------------|
----------11----11--9----9---------9--|----------11----11--9----9---------9--|
--7----7--------------------9--11-----|--7----7--------------------9--11-----|
--0----0------------------------------|--0----0------------------------------|


Q E Q E Q E E E E Q E Q E Q E E E E
--------------------------------------|--------------------------------------|
----------11----11--9----9---------9--|----------11----11--9----9---------9--|
--7----7--------------------9--11-----|--7----7--------------------9--11-----|
--0----0------------------------------|--0----0------------------------------|


Q E Q E Q E E E E Q E Q E Q E E E E
--------------------------------------|--------------------------------------|
----------11----11--9----9---------9--|----------11----11--9----9---------9--|
--7----7--------------------9--11-----|--7----7--------------------9--11-----|
--0----0------------------------------|--0----0------------------------------|


Q E Q E Q E E E E Q E Q E Q E E E E
--------------------------------------|--------------------------------------|
----------11----11--9----9---------9--|----------11----11--9----9---------9--|
--7----7--------------------9--11-----|--7----7--------------------9--11-----|
--0----0------------------------------|--0----0------------------------------|


Q E Q E Q E E E E Q E Q E Q E E E E
--------------------------------------|--------------------------------------|
----------11----11--9----9---------9--|----------11----11--9----9---------9--|
--7----7--------------------9--11-----|--7----7--------------------9--11-----|
--0----0------------------------------|--0----0------------------------------|


Q E Q E Q E E E E Q E Q E Q E E E E
--------------------------------------|--------------------------------------|
----------11----11--9----9---------9--|----------11----11--9----9---------9--|
--7----7--------------------9--11-----|--7----7--------------------9--11-----|
--0----0------------------------------|--0----0------------------------------|


Q E Q E Q E E E E Q E Q E Q E E E E
--------------------------------------|--------------------------------------|
----------11----11--9----9---------9--|----------11----11--9----9---------9--|
--7----7--------------------9--11-----|--7----7--------------------9--11-----|
--0----0------------------------------|--0----0------------------------------|


Q E Q E Q E E E E Q E Q E Q E E E E
--------------------------------------|--------------------------------------|
----------11----11--9----9---------9--|----------11----11--9----9---------9--|
--7----7--------------------9--11-----|--7----7--------------------9--11-----|
--0----0------------------------------|--0----0------------------------------|


Q E Q E Q E E E E Q E Q E Q E E E E
----------11----11--9----9---------9--|----------11----11--9----9---------9--|
--7----7--------------------9--11-----|--7----7--------------------9--11-----|
--0----0------------------------------|--0----0------------------------------|
--------------------------------------|--------------------------------------|


Q E Q E Q E E E E Q E Q E Q E E E E
----------11----11--9----9---------9--|----------11----11--9----9---------9--|
--7----7--------------------9--11-----|--7----7--------------------9--11-----|
--0----0------------------------------|--0----0------------------------------|
--------------------------------------|--------------------------------------|


Q E Q E Q E E E E Q E Q E Q E E E E
--------------------------------------|--------------------------------------|
----------11----11--9----9---------9--|----------11----11--9----9---------9--|
--7----7--------------------9--11-----|--7----7--------------------9--11-----|
--0----0------------------------------|--0----0------------------------------|


Q E Q E Q E E E E Q E Q E Q E E E E
--------------------------------------|--------------------------------------|
----------11----11--9----9---------9--|----------11----11--9----9---------9--|
--7----7--------------------9--11-----|--7----7--------------------9--11-----|
--0----0------------------------------|--0----0------------------------------|


Q E Q E Q E Q E
----------13----13--11----11--13----13--|-------|-------|-------|-------|
--9----9--------------------------------|-------|-------|-------|-------|
----------------------------------------|-------|-------|-------|-------|
----------------------------------------|-------|-------|-------|-------|


S S S S E. E. S S S S E
-------|-------|-------|-------|-------|-----------------------------|
-------|-------|-------|-------|-------|--------------9---7-6-7-6----|
-------|-------|-------|-------|-------|------5-7-----------------7--|
-------|-------|-------|-------|-------|--5-7-----0------------------|


S S S S E. E. S S Q S S S S E. E. S S S S E
---------------------------|-----------------------------|
--------------9---7-6-7----|--------------9---7-6-7-6----|
------5-7------------------|------5-7-----------------7--|
--5-7-----0----------------|--5-7-----0------------------|


S S S S E. E. S S Q S S S S E. E. S S S S E
---------------------------|-----------------------------|
--------------9---7-6-7----|--------------9---7-6-7-6----|
------5-7------------------|------5-7-----------------7--|
--5-7-----0----------------|--5-7-----0------------------|


S S S S E. E. S S Q Q E. E S S S S S S S
---------------------------|----------------------------|
--------------9---7-6-7----|----------------------------|
------5-7------------------|------------------------7---|
--5-7-----0----------------|--0----0------4-5-7---9---9-|


E. S S S S S Q E E E. S S S S E S S S S E.
---------------------------|-----------------------------|
---------------------------|-----------------------------|
--7---7---7-----7----------|--7---7-7-7------------------|
--------9-----9------3--0--|--------------4--5---7---9---|


E. S S S S S S S S S E E E. S S E E E S S S E
------------------------------|----------------------------|
------------------------------|----------------------------|
--7---7---7---7---7---7-------|--7---7-7-7--------------7--|
--------9---------------3--0--|-------------4--5--7---9----|


E. S S S S S S S S S E E E S S S S S E S S S S S S S
------------------------------|--------------------------------|
------------------------------|--------------------------------|
--7---7---7---7---7---7-------|--7--7-7-7----------------7-----|
--------9---------------3--0--|-----------4---5--7---7-9-----9-|


E. S S E E S E E E E. S S S S E S S S E S T T
---------------------------|-----------------7---7----9-----|
---------------------------|--------------7--------9----9---|
--7---7-7-7--4--7----------|--5---7-7-7---------------------|
---------------------3--0--|--------------------------------|


E. S S E E E S E E E. S S S S S S S S S S S S S
---------------------------|----------------------7------9---|
---------------------------|------------------7-9---9-11-----|
--7---7-7-7--5-------------|--7---7-7-7---7------------------|
----------------7--5-3--0--|---------------------------------|


E. S S S S S S S E E E E. S S S S S S S S S S S S S
-----------------------------|----------------------7------9---|
-----------------------------|------------------7-9---9-11-----|
--7---7-7-7---5--------------|--7---7-7-7---7------------------|
------------------7-5--3--0--|---------------------------------|


E. S S S S S S S E E E E. S S E E E S S S E
-----------------------------|----------------------------|
-----------------------------|----------------------------|
--7---7-7-7---5--------------|--7-----7-7-----7--7-7-5----|
------------------7-5--3--0--|-------------------------7--|


S S S S E. S E S S Q S S S S E. E. S S S S E
----------------------------|-----------------------------|
----------------9--7-6-7----|--------------9---7-6-7-6----|
------5-7-------------------|------5-7-----------------7--|
--5-7-----0-----------------|--5-7-----0------------------|


S S S S E. S E S S Q S S S S E. E. S S S S E
----------------------------|-----------------------------|
----------------9--7-6-7----|--------------9---7-6-7-6----|
------5-7-------------------|------5-7-----------------7--|
--5-7-----0-----------------|--5-7-----0------------------|


S S S S E. S E S S Q S S S S E. E. S S S S E
----------------------------|-----------------------------|
----------------9--7-6-7----|--------------9---7-6-7-6----|
------5-7-------------------|------5-7-----------------7--|
--5-7-----0-----------------|--5-7-----0------------------|


S S S S E. S E S S Q E. S S E E E E. E
----------------------------|--------------------------|
----------------9--7-6-7----|--------------------------|
------5-7-------------------|--------------------------|
--5-7-----0-----------------|--0---0-3-4--5--6--7---9--|


E. S S E S E S S S S S S E. S S E E E E E S
------------------------------|---------------------------|
----------9--5-6--9-9---------|---------------------------|
--7-----7---------------------|---------------------------|
------9---------------7-7-5-5-|--0---0-3-4--5--6--7--7--7-|


E. S S S S S S S S S S S E E. S S E E E E E S
-------------------------------|---------------------------|
-------------------------------|---------------------------|
--7-----7-7-------7------------|---------------------------|
------9-------9-------0-3-4-0--|--0---0-3-4--5--6--7--9--9-|


E. S S E E E S S S E E. S S E E E S S S S S
----------------------------|-----------------------------|
----------------------------|-----------------------------|
--7-----7-7-----7-----------|-------------------------5-6-|
------9------9-----0-3-4-0--|--0---0-3-4--5--6--7-8-9-----|


E. S S E E E S S S E S E S S S S S S E T T S S E
----------------------------|-------------------7------7-9-12--|
----------------------------|---------------7-9----9-----------|
--7-----7-7-----7-----------|----7--7-7-7----------------------|
------9------9-----0-3-4-0--|--9-------------------------------|


E. S S E S S S S S S S E E S S S E S E S S S S S S
------------------------------------|-----------------------7---6-9-|
------------------------------------|-------------------7-9---9-----|
------------------------------------|-----7-7-7-7--7----------------|
--12---12-12-12--10---10---0-3-4-0--|--9----------------------------|


E. S S E S S S S S S S E E. S S S S S S S S S S S S S
------------------------------|--------------------------------|
------------------------------|----------------------------5-6-|
--7---7-7-7--5---5------------|------7-7-7---7---5-----5-7-----|
---------------------0-3-4-0--|--7-------------------7---------|


E. T T S S S S S S S S S S E S S S S E. S E S S S S E
---------------------------------|------------------------------|
----------0----------------------|--------------7-9--7-6-7-6----|
--7-------5-6-7-7----------------|--5-7-7-7-7----------------7--|
------9-------------6-7-0-3-4-0--|------------------------------|


S S S S E. E. S S Q S S S S E. E. S S S S E
---------------------------|-----------------------------|
--------------9---7-6-7----|--------------9---7-6-7-6----|
------5-7------------------|------5-7-----------------7--|
--5-7-----0----------------|--5-7-----0------------------|


S S S S E. E. S S Q S S S S E. E. S S S S E
---------------------------|-----------------------------|
--------------9---7-6-7----|--------------9---7-6-7-6----|
------5-7------------------|------5-7-----------------7--|
--5-7-----0----------------|--5-7-----0------------------|


S S S S E. E. S S Q S S S S E. E. S S S S E
---------------------------|-----------------------------|
--------------9---7-6-7----|--------------9---7-6-7-6----|
------5-7------------------|------5-7-----------------7--|
--5-7-----0----------------|--5-7-----0------------------|


S S S S E. E. S S Q W W.
---------------------------|--L----------------|-------------------|
--------------9---7-6-7----|-------------------|-------------------|
------5-7------------------|-------------------|-------------------|
--5-7-----0----------------|-------------------|-------------------|


W. W. W. W.
-------------------|-------------------|-------------------|-------------------|
-------------------|-------------------|-------------------|-------------------|
-------------------|-------------------|-------------------|-------------------|
-------------------|-------------------|-------------------|-------------------|


W. W. W.
-------------------|-------------------|-------------------|
-------------------|-------------------|-------------------|
-------------------|-------------------|-------------------|
-------------------|-------------------|-------------------|


W.
-------------------||
-------------------||
-------------------||
-------------------||




Duration Legend
---------------
W - whole
H - half
Q - quarter
E - 8th
S - 16th
T - 32nd
X - 64th
. - note dotted
|-n-| - n-tuplets


Tablature Legend
----------------
L - tied note
x - note
g - grace note
(n) - ghost note
> - accentuded note
NH - natural harmonic
AH - artificial harmonic
TH - tapped harmonic
SH - semi harmonic
PH - pitch harmonic
h - hammer on
p - pull off
b - bend
br - bendRelease
pb - preBend
pbr - preBendRelease
brb - bendReleaseBend
n/ - tremolo bar dip
n - tremolo bar dive
-/n - tremolo bar Release up
/n - tremolo bar inverted dip
/n - tremolo bar return
-n - tremolo bar Release down
S - shift slide
s - legato slide
/ - slide into from below or out of upwards
- slide into from above or out of downwards
~ - vibrato
W - wide vibrato
tr - trill
TP - tremolo picking
T - tapping
S - slap
P - pop
< - fade in
^ - brush up
v - brush down



Get this song at amazon.com      Ebay     Ringtones Ringtones  


Learn to play: Songwriting, Piano, Harmonica, Guitar
More Led Zeppelin lyrics available at Muzikum

Related Led Zeppelin Bass Tabs

Heart Breaker bass
The Girl I Love She Got Long Black Wavu Hair bass
Celebration Day bass
Im Gonna Crawl bass
Travelling Riverside Blues bass
Bring It On Home bass
Rock N Roll bass
All My Love bass
Houses Of The Holy bass
Misty Mountain bass
Walters Walk bass
White Summer/black Mountain Side bass
Thats The Way bass
Black Dog (tabbed From Notes) bass
Friends bass
Bring It On Home Alternate Version bass
Stair Way To Heaven (correct) bass
In The Light 4 String bass
Rock And Roll bass
Gallows Pole bass


Guitar Tabs









All tabs are property and copyright of their owners. All tabs provided for educational purposes only. Privacy Policy, DMCA

Online converter - videoconverter.com