Led Zeppelin

Black Dog (tabbed From Notes) Bass Tabs



More from Led Zeppelin

Led Zeppelin Tabs
Led Zeppelin Chords
Led Zeppelin Bass
Led Zeppelin Lyrics




[Part 1]

E------------------------------------------------------------------------------
A--7--------7---------------------------------------------5-7-3-5-0*-----
D----5-6-7-------7------------------7-7----7--5-7-7--------------------
G--------------5b---7h9--5h7p5-------5--------------------------------

Part 1

Part 1

[Part 2]
E---7---------7---------7---------7--------7--------7--------7--------------
A------5-6-7-------7-----5-6-7-------7----5-6-7-------7----5-6-7------
D----------------5b------------------5b----------------5b--------------------
G--------------------------------------------------------------------------------

Part 1

[Part 3]

E-------------------------------------------------------------------------------------------------------------------------------------------------
A--------------------0-0-------------------0-0------------------0-0--------------------0-0-------------------0-0------------------0-0----
D-------------------------------------------------------------------------------------------------------------------------------------------------
G---4/5\4p2-4-2------4/5\4p2-4-2-------4/5\4p2-4-2--------4/5\4p2-4-2-------4/5\4p2-4-2-------4/5\4p2-4-2---------

Part 1

Part 1

[Part 4]

E-----------3----------------------3----------------3---------------------3---------------3----------------------------3--------------------
A---0-0-0----0-0-0-3--0-0-0------0---0-0-0----0-0-0-3--0-0-0-----0---0-0-0----0-0-0-3----0--0-0-0----0-0-0-3---0----
D-------------------------------------0---------------------------------------0----------------------------0--------------------------0------
G-----------------------------------------------------------------------------------------------------------------------------------------------

Part 1

Part 1

Part 1

Part 2

Part 1

Part 3

Part 1

Part 1

Part 4

Repeat until fade

[ ] = The part listed below

W/O brackets means play that part there.



Get this song at amazon.com      Ebay     Ringtones Ringtones  


Learn to play: Songwriting, Piano, Harmonica, Guitar
More Led Zeppelin lyrics available at Muzikum

Related Led Zeppelin Bass Tabs

Ten Years Gone bass
Black Dog (tabbed From Notes) bass
Hots On For Nowhere bass
Dryer Maker bass
Friends bass
The Gilr I Love, She Got Long Black Wavy Hair bass
Rock N Roll bass
Black Dog bass
I Cant Quit You Baby bass
Ramble On bass
For Your Life bass
Out On The Tiles bass
The Girl I Love She Got Long Black Wavy Hair bass
The Song Remains The Same bass
In The Light 4 String bass
Dazed And Confused bass
The Ocean (complete) bass
The Ocean (100% Correct) bass
The Crunge bass
Custard Pie bass


Guitar Tabs









All tabs are property and copyright of their owners. All tabs provided for educational purposes only. Privacy Policy, DMCA