Led Zeppelin

Black Dog (live Version) Tabs



More from Led Zeppelin

Led Zeppelin Tabs
Led Zeppelin Chords
Led Zeppelin Bass
Led Zeppelin Lyrics




this version is live and they play it awesome live, try to bend
the strings alot(bends sound better on clean)
verus
this first one is my version
e--------------------------------------------------------
b--------------------------------------------------------
g------------5^6---7-9-5h7p5---5^6------------------2----
d----5-6-7-------7-----------7------7--5-7----------2----
a--7-------7-------------------------------5--7/3-5-0----
e--------------------------------------------------------
i reckon it sounds better with 1 power chord at the end, but you
can use 2
or you could play it like this:
riff 1
e---------------------------------------------------------------------------
b---------------------------------------------------------------------------
g-----------5^6----7-9--5h7p5------5^6--------------------------------------
d---5-6-7-------7--------------7-7------7--5-7-7----------2-2---------------
a-7-------7--------------------------------------5--7\3-5-0-0---------------
E---------------------------------------------------------------------------
fill 1
e---------------------------------------------------------------------------
b---------------------------------------------------------------------------
g---------------------------------------------------------------------------
d------------5^6--------------5^6--------------5^6---------------------------
a---5-6-7--------7----5-6-7-------7----5-6-7-------7----5-6-7-5*-------------
E-7-------777--------7-------7--------7-------7--------7----------------------
..mute just these two first 7s
*Back to first riff
During the "Oh YEah...oh yeah!" part:
this part is pretty hard and played pretty fast
riff 2
e---------------------------------------------------------------------------
b---------------------------------------------------------------------------
g------2-4^6^4p2-4-2----------2-4^6^4p2-4-2--------------2-4^6^4p2----------
d---2----------------------2---------------------2--5--2-----------4-2------
a-3-0------------------3^4-0-----------------3^4-0--3--0--------------------
E---------------------------------------------------------------------------

e---------------------------------------------------------------------------
b---------------------------------------------------------------------------
g---------2-4^6^4p2--4-2--------2-4^6^4p2-4-2----------------2--------------
d------2----------------------2-------------------2--5--2----2--------------
a--3^4-0------------------3^4-0---------------3^4-0--3--0-------------------
E----------------------------------------------------------3^5--------------

This is played is sang "Hey Baby, Pretty Babay" part and backs
the solo:
riff 3
e-----------------------------------------------------3---2-----------------------------
b-----------------------------------------------------3---3-----------------------------
g---------2--------------2--5------------2------------0---2-----------------------------
d---------2--------------2--5------------2------------0---0-----------------------------
a---------0--------------0--3------------0----------------------------------------------
E--2^/(3)----2----3^/(4)----------2^/(3)----2-------------------------------------------

on the last verus jimmy just plays down a string like this
riff 4
e--------------------------------------------------------
b------------5^6---7-9-5h7p5-----5^6------------------2--
g----5-6-7-------7-----------7-7-----7--5-7-7---------2--
d--7-------7---------------------------------5--7/3-5-0--
a--------------------------------------------------------
e--------------------------------------------------------

Solo:
e----------------------------------------------5---------------------5--------
b-----------------------------------------------------------------------------
g-----------------------------------2---2--4/6--------------2--2-4/6----------
d-------------------------------2-4---4-----------------2-4--4----------------
a--------0-2^3-0-----0---0--2/4-------------------0-2-4-----------------------
E-2--0h2---------2-0-0--------------------------------------------------------

e---------------------5------------------------------------------5------------
b-----------------------------3-----------------------------------------------
g-----------2---2-4/6-----5^7---5-4-2---2h4------------2---2-4/6--------------
d-------2-4---4-----------------------4------------2-4---4--------------------
a-0-2-4--------------------------------------0-2-4----------------------------
E-----------------------------------------------------------------------------

e---------------------5----------------------5--------------------------------
b---------------------------------------------------3-------------------------
g-----------2---2-4/6--------------2---2-4/6----5^7---5-4-2---2h4-------------
d-------2-4---4----------------2-4---4----------------------4-----------------
a-0-2-4------------------0-2/4------------------------------------------------
E-----------------------------------------------------------------------------

e-------5---5-7^9-7-5---5--------8-10--10^11-10^12--(10)^12^10p8--10-10^12^10-
b-------5-7-----------5---5-8/10----------------------------------------------
g-2-4/6-----------------------------------------------------------------------
d-----------------------------------------------------------------------------
a-----------------------------------------------------------------------------
E-----------------------------------------------------------------------------

e-8--10^12--8-----8-------10^12-10-8-10^12^10-------15------------------------
b-------------10-------10------------------------15^17--(15)^17^15p13--15^17--
g----------------------------------------------0------------------------------
d-----------------------------------------------------------------------------
a-----------------------------------------------------------------------------
E-----------------------------------------------------------------------------

e-------------------------------17------------17-----------20---------20------
b--15-13---15^17--13-----------------------17-----20^21^22----(20)^22^20--17--
g--------0----------------19^21------19^21------------------------------------
d--------------------12-------------------------------------------------------
a-----------------------------------------------------------------------------
E-----------------------------------------------------------------------------

e--------17--------------------------------------------------20---------------
b-----------20-17-20^22---(20)^22^20--17-----20--------20^22-----(20)^22^20-17
g-19^21-----------------------------------19^21^19^21-------------------------
d-----------------------------------------------------------------------------
a-----------------------------------------------------------------------------
E-----------------------------------------------------------------------------

e--------------------------------------5------------5------------5------------
b------------------------------------5---8p5------5---8p5------5---8p5--------
g-19^21--19--17-----19-17^18---5/7^9----------7^9----------7^9----------------
d----------------19-----------------------------------------------------------
a-----------------------------------------------------------------------------
E-----------------------------------------------------------------------------

e-------5------------5------------5-------------------------------------------
b-----5---8p5------5---8p5------5---8p5-8p5---5-------------------------------
g-7^9----------7^9----------7^9-------------7---7-5---7-5-5^6--------5--------
d---------------------------------------------------7----------7-5-7---7------
a-----------------------------------------------------------------------------
E-----------------------------------------------------------------------------

e-----------------------------------------------------------------------------
b-------------------------------------------8---------------------------------
g--5--7^9-------5--5^6-5^6--7--7^9--7-5---5---7^9-7-5---5/7--------5-------5--
d-------------7-------------------------7-------------7------5-6-7---5-6-7----
a-----------------------------------------------------------------------------
E-----------------------------------------------------------------------------

e---------------------------------------------------------------------------5-
b-----------------------------------------------------------------------------
g-------5/7--------5-------5/7-------5----------------------------2---2-4/6---
d-5-6-7------5-6-7---5-6-7-----5-6-7---5-6-7------------------2-4---4---------
a--------------------------------------------7-5-3-4------3h4-----------------
E----------------------------------------------------5\3----------------------

e------------------------5----------------------------------------------------
b-----------------------------------------------------------------------------
g--------------2---2-4/6----7-----------2---2-4/6-0---------------------------
d----------2-4---4------------------2-4---4--------------4-0------------------
a--0--3h4---------------------0-2/4------------------3h4-----3-4-0------------
E------------------------------------------------------------------3\2--------

e----------------------5-5--------8-8---10^12--10-10^12-10-10^12-10-8-10-10^12
b---------------------------8/10----8-----------------------------------------
g------------2---2-4/6--------------------------------------------------------
d--------2-4---4--------------------------------------------------------------
a--0-2/4----------------------------------------------------------------------
E-----------------------------------------------------------------------------

e--8--8^9-----8-------------------------------------------15------------------
b----------10-----10---13^17^13---10--13^17^13--10-----------15^17--15-13-----
g---------------------------------------------------14-14-----------------14--
d-----------------------------------------------------------------------------
a-----------------------------------------------------------------------------
E-----------------------------------------------------------------------------

e--------------------------15----------------------
b-13h15--13----13h15---13------15^17---------------
g-----------14-------------------------------------
d--------------------------------------------------
a--------------------------------------------------
E--------------------------------------------------
then back to the 'oh baby, pretty baby'
e-----------------------------------------------------3-------
b-----------------------------------------------------3-------
g---------2--------------2--5------------2------------0-------
d---------2--------------2--5------------2------------0-------
a---------0--------------0--3------------0--------------------
E--2^/(3)----2----3^/(4)----------2^/(3)----2-----------------

then he does a mini solo
e--------------------------------------------------------
b--------5h7--------5h6------5h7--------5h6--------------
g--5h7-5----5h7p5-------5h7-5----5h7p5------7-5--8fb~//--
d-----6-----------6--------6-----------6-----------------
a--------------------------------------------------------
e--------------------------------------------------------
then a drum solo, then theres another solo which i dont know yet
jimmy just uses g and d hammering on an pulling off around 5 and
7 fret then he goes down to 10 and 12 does this awesome thing you
can figure it out if you have the dvd
then theres a cool end:
e-------------------------------
b-------------------------------
g--2-2--2b4~-4p2-4-1-2-0~~~///--
d--2-2--------------------------
a--0-0--------------------------
e-------------------------------
okay this is the order of the song
verus x3,
fill 1,
riff 2,
verus x3,
riff 3 x2,
riff 1 x3,
fill 1,
riff 2,
riff 4 x3,
solo and riff 3 is played under the solo
riff 3,
then a little solo then the cool end



Get this song at amazon.com      Ebay     Ringtones Ringtones  


Learn to play: Songwriting, Piano, Harmonica, Guitar
More Led Zeppelin lyrics available at Muzikum

Related Led Zeppelin Tabs

The Battle Of Evermore (chords) tabs
The Girl I Love Bbc Sessions tabs
Black Dog Intro And Chorus tabs
Heart Breaker tabs
The Song Remains The Same tabs
Stairway To Heaven tabs
Carouselambra tabs
Stairway To Heaven(more Than 100% Right) tabs
Hey Lady tabs
The Rain Song tabs
Since I tabs
Poor Tom Bass tabs
Stairway Solo tabs
Wanton Song tabs
Hey Hey What Can I Do tabs
Misty Mountain Hop tabs
Black Dog Tab tabs
Bring It On Home tabs
Black Country Woman tabs
What Is And What Should Never Be tabs


Guitar Tabs









All tabs are property and copyright of their owners. All tabs provided for educational purposes only. Privacy Policy, DMCA