Led Zeppelin

Black Dog (correct Main Riff) Tabs



More from Led Zeppelin

Led Zeppelin Tabs
Led Zeppelin Chords
Led Zeppelin Bass
Led Zeppelin Lyrics




Tabbed by Super QUINN

email: chknman55555@hotmail.com

I have seen many a "Black Dog" tab. Most of them are correct other
than certain ones (i.e. the ones that start on C)
Well this is how I play it and it sounds a lot like the actually
song.


e|------------------------------------------------------------------------
B|------------------------------------------------------------------------
G|----------------5^----7-9--5h7p5------5^--------------------------------
D|--------5-6-7------7-------------7-7-----7--5-7-7------------2--2-2-----
A|----/7--------7------------------------------------5-7--3-5-----0-0-----
E|------------------------------------------------------------------------

Play that after "Hey hey mama" , "Ah ah child" , and "Hey hey lady"

Then, play this

e|--------------------------------
B|--------------------------------
G|--------------------------------
D|------------5^--------------5^--
A|----5-6-7------7----5-6-7------7
E|----------7-------7-------7-----

e|---------------------------------------------------------------------------
B|---------------------------------------------------------------------------
G|-------------------------5^----7-9--5h7p5-----5^---------------------------
D|-----------------5-6-7------7-------------7-7----7--5-7-7------------2--2-2
A|------5-6-7--5-7-------7-----------------------------------5-7--3-5-----0-0
E|----7----------------------------------------------------------------------



Get this song at amazon.com      Ebay     Ringtones Ringtones  


Learn to play: Songwriting, Piano, Harmonica, Guitar
More Led Zeppelin lyrics available at Muzikum

Related Led Zeppelin Tabs

Bron Y Aur Stomp Bass tabs
Ramble On tabs
Hey Lady tabs
In My Time Of Dying tabs
Ozone Baby tabs
Since Ive Been Loving You Live tabs
Since I tabs
Walters Walk tabs
The Rover Solo tabs
Stairway To Heaven tabs
Down By The Seaside tabs
Heartbreaker tabs
Walters Walk Intro tabs
When The Levee Breaks tabs
Rock & Roll tabs
Black Dog (live Version) tabs
Living Loving Maid (Shes Just A Woman) tabs
Led Zeppelin 4 Album tabs
Lets Have A Party tabs
Baby Come On Home(5 Stars) tabs


Guitar Tabs









All tabs are property and copyright of their owners. All tabs provided for educational purposes only. Privacy Policy, DMCA