Led Zeppelin

Black Dog Bass Tabs



More from Led Zeppelin

Led Zeppelin Tabs
Led Zeppelin Chords
Led Zeppelin Bass
Led Zeppelin Lyrics

Led Zepplin.. Black Dog!

+--------------5---7h9-5h7h9-----5------------------------------------+
|----5-6-7-------7-----------7-7---7-5-7-7----------------------------|
|--7--------7------------------------------5-7-3-5-3------------------|
+---------------------------------------------------------------------+

+---------------------------------------------------------------------+
|-----------5-------------5-------------5-----------------------------|
|---5-6-7-----7---5-6-7-----7---5-6-7-----7----5-6-7------------------|
+-7-------7-----7-------7-----7-------7------7------------------------+

Oh yeah..  (do it twice)
+---------------------------------------------------------------------+
|---------------------------------------------------------------------|
|-----------------3---------------------------------------------------|
+--5-5---5-5---5----5-------------------------------------------------+

Ah, Ah, Ah.. (solo)
+---------------------------------------------------------------------+
|---------------------------------------------------------------------|
|------------------3-5-----------5-3----------------------------------|
+-5-2-0-5-2--5-2-0-----5-2-0-5-2-----5--------------------------------+
Get this song at amazon.com      Ebay     Ringtones Ringtones  


Learn to play: Songwriting, Piano, Harmonica, Guitar
Also available at Muzikum: Led Zeppelin - Black Dog lyrics

Related Led Zeppelin Bass Tabs

The Rain Song bass
The Wanton Song (complete) bass
Fool In The Rain bass
Stair Way To Heaven (out Of The Golden Book) bass
Black Country Woman bass
Whole Lotta Of Love bass
Moby Dick bass
The Crunge bass
Street corner girl bass
Black Dog Correct bass
No Quater bass
Rock And Roll bass
Celebration Day bass
Kashmir (correct) bass
Immigration Song bass
Wearing And Tearing bass
Royal Orleans bass
Crunge bass
You Shook Me bass
Travelling Riverside Blues bass


Guitar Tabs









All tabs are property and copyright of their owners. All tabs provided for educational purposes only. Privacy Policy, DMCA