Led Zeppelin

Black Dog Intro And Chorus Tabs



More from Led Zeppelin

Led Zeppelin Tabs
Led Zeppelin Chords
Led Zeppelin Bass
Led Zeppelin Lyrics



--------------------------------------------------
-----------------5--------------------------------
-----------5---7---5h7-5--5-----------------------
---5-6-7-----7-----------7---7-5-7-7-----2--------
-7-------7-----------------------5-7-3-5-0--------
--------------------------------------------------

--------------------------------------------------
-----------------5--------------------------------
-----------5---7---5h7-5--5-----------------------
---5-6-7-----7-----------7---7-5-7-7-----2--------
-7-------7-----------------------5-7-3-5-0--------
--------------------------------------------------

--------------------------------------------------
-----------------5--------------------------------
-----------5---7---5h7-5--5-----------------------
---5-6-7-----7-----------7---7-5-7-7-----2--------
-7-------7-----------------------5-7-3-5-0--------
--------------------------------------------------

--------------------------------------------------
-------------------------------------------------- x3
--------------------------------------------------
-----------5--------------------------------------
---5-6-7-----7------------------------------------
-7-------7----------------------------------------

--------------------------------------------------
---------------------5----------------------------
---------------5---7---5--------------------------
-------5-6-7-----7-------7-5-7-7---------2--------
---5-7-------7-------------------5-7-3-5-0--------
-7------------------------------------------------


there you go black dog



Get this song at amazon.com      Ebay     Ringtones Ringtones  


Learn to play: Songwriting, Piano, Harmonica, Guitar
More Led Zeppelin lyrics available at Muzikum

Related Led Zeppelin Tabs

Were Gonna Groove Bass tabs
We're Gonna Groove tabs
Hot Dog tabs
Ramble On tabs
Living Loving Maid tabs
Candy Store Rock tabs
Poor Tom Bass tabs
Since I tabs
Gallows Pole ( Mandolin ) tabs
No Quarter (perfecto) tabs
South Bound Saurez tabs
Baby Come On Home tabs
Carouselambra Bass tabs
Black Dog2 tabs
White Summer tabs
Babe Im Gonna Leave You Intro tabs
Hats Off To Roy Harper tabs
Black Dog3 tabs
Night Flight Bass tabs
Black Country Woman tabs


Guitar Tabs









All tabs are property and copyright of their owners. All tabs provided for educational purposes only. Privacy Policy, DMCA