Led Zeppelin

Black Dog Correct Bass Tabs



More from Led Zeppelin

Led Zeppelin Tabs
Led Zeppelin Chords
Led Zeppelin Bass
Led Zeppelin Lyrics



G ----------5---7-9-5-h7p----5-----------------
D --5-6-7-----7-----------77---7-5-77----------
A 7-------7---------------------------5-7-3-5-0 x3
E ---------------------------------------------

G -------------
D ----------5--
A --5-6-7-----7 x3
E 7-------7----

G ------------------5---7-9-5-h7p----5----------------
D ---------5-6-77----7-----------77---7-5-77----------
A --5-6-77--------7--------------------------5-7-3-5-0
E 7---------------------------------------------------

G -------
D -------
A 33p---0 x3
E ----3--



Get this song at amazon.com      Ebay     Ringtones Ringtones  


Learn to play: Songwriting, Piano, Harmonica, Guitar
More Led Zeppelin lyrics available at Muzikum

Related Led Zeppelin Bass Tabs

Baby Come On Home bass
Black Dog Bass Tab bass
Houses Of The Holy bass
Kashmir (live) bass
Moby Dick-1000000% bass
The Wanton Song bass
South Bound Saurez bass
Royal Orleans bass
Kashmir Intro bass
Tangerine bass
Dazed And Confuzed bass
Whole Lotta Of Love bass
Heartbreaker Complete bass
How Many More Times bass
The Lemon Song bass
Out On The Tiles bass
Down By The Seaside bass
No Quarter bass
Walters Walk bass
Carouselambra bass


Guitar Tabs









All tabs are property and copyright of their owners. All tabs provided for educational purposes only. Privacy Policy, DMCA

Online converter - videoconverter.com