Led Zeppelin

Black Dog Bass Tab Bass Tabs



More from Led Zeppelin

Led Zeppelin Tabs
Led Zeppelin Chords
Led Zeppelin Bass
Led Zeppelin Lyrics




Band: Led Zeppelin
Song: Black Dog
Bassist: John Paul Jones
Tuning: E A D G

The bass doesn't come in until sfter Robert Plant sings the first verse

Main Riff
|------------5b----7h9-5h7p5---5b----------------------------|
|----5-6-7-----7------------7----7-5h7-7---------------------|
|--7-------7-----------------------------5h7-3h5-0-----------|
|------------------------------------------------------------|
hold the open note (A) while Plant sings the verse and then play the riff
a couple more times. the bends are 1/4 bends and are not needed for the song
to sound good.

Second Riff
|------------------------------------------------------------|
|------------5b-------------5b-------------5b----------------|
|----5-6-7-----7----5-6-7-----7----5-6-7-----7----5-6-7-5h7--|
|--7-------7------7-------7------7-------7------7------------|
after playing this riff once through, go immediatly back to the main riff.
once again, the bends are 1/4 bends and are not needed

Chorus
|------------------------------------------------------------|
|------------------------------------------------------------|
|--0--0----0--0----0--3--0-----------------------------------|
|------------------------------------------------------------|
play this while Plant is doing the "oooh yeah" part (or the chorus)

Bridge/Solo/Outro
|------------------------------------------------------------|
|------------------------------------------------------------|
|-----------------5------------------7--5--------------------|
|--303--5-2---303----3-2---303--5-2--------------------------|
play this until the song fades out



Get this song at amazon.com      Ebay     Ringtones Ringtones  


Learn to play: Songwriting, Piano, Harmonica, Guitar
More Led Zeppelin lyrics available at Muzikum

Related Led Zeppelin Bass Tabs

Dazed And Confused bass
Kashmir (the Right Way!) bass
Fool In The Rain bass
In My Time Of Dying bass
In The Light 4 String bass
Misty Mountain bass
Babe Im Gonna Leave You bass
Black Country Woman bass
Dazed And Confused (correct) bass
Achilles Last Stand bass
Gallows Pole 99 9% Correct bass
Good Times Bad Times bass
Friends bass
Kashmir (live) bass
Most High bass
Whole Lotta Of Love bass
Rock & Roll bass
Gallows Pole bass
Communitcation Breakdown bass
Kashmire bass


Guitar Tabs









All tabs are property and copyright of their owners. All tabs provided for educational purposes only. Privacy Policy, DMCA