Led Zeppelin

Baby Come On Home Bass Tabs



More from Led Zeppelin

Led Zeppelin Tabs
Led Zeppelin Chords
Led Zeppelin Bass
Led Zeppelin Lyrics



Standard Tuning

G|------------||------------|------------|------------|
D|------------||------------|------------|------------|
A|------------||------------|----------1-|3-----------|
E|-----------3||4-----------|4-----------|------------|

G|------------|------------|------------|------------|
D|5-----------|------------|------------|5-----------|
A|------------|3-----------|3---------3-|------------|
E|------------|------------|------------|------------|

G|------------|------------|------------|------------|
D|5---------54|3-----------|3---------5-|6-----------|
A|------------|-----------3|------------|------------|
E|------------|------------|------------|------------|

G|------------|------------|------------|------------|
D|6-------8-9-|10----------|------------|5-----------|
A|------------|----------10|------------|------------|
E|------------|------------|8-----------|------------|

G|------------|------------|------------|------------|
D|5-------5-4-|3-----------|3-----------|------------|
A|------------|------------|------------|-----------6|
E|------------|------------|--------1-3-|4-----------|

G|------------|------------|------------|------------|
D|6-----8-----|------------|------------|------------|
A|-----6-----6|3-----3-----|3-----3-----|----------03|
E|------------|------------|--------3-2-|1-----1-----|
Babe Babe Come on home.....

G|------------|------------|------------|------------|
D|3-------3-4-|5-----------|------------|------------|
A|------5-----|--------5-7-|8-----------|------------|
E|------------|------------|------------|5-----------|

G|------------|------------|------------|------------|
D|5-----------|----------5-|--------2-3-|5-----------|
A|------------|3-----------|3-----3-----|----------5-|
E|------3-----|------------|------------|------------|

G|------------|------------|------------|------------|
D|5-----------|5---------4-|3-----------|3---------5-|
A|----------5-|------------|----------3-|------------|
E|------------|------------|------------|------------|

G|----------68|------------|5-----------|------------|
D|6-----------|6-----8-8-9-|---------5-5|--------2-3-|
A|------------|------------|----------3-|3-----------|
E|------------|------------|------------|------------|

G|------------|------------|------------|------------|
D|5-----------|------------|------------|------------|
A|----------5-|------------|----------3-|------------|
E|------------|3---------3-|1-----------|1-----1-2-3-|

G|------------|------------|5-----------|------5-----|
D|----------6-|6--6--8---8-|------------|-------5--1-|
A|---------6-6|--6-6----8-8|------3-----|3-------31-1|
E|4-----------|------------|------------|------------|

G|------------|------------|------------|------------|
D|------------|------------|----------3-|3---------35|
A|-----------0|3-----5-3---|--------5---|------------|
E|1---------3-|----------5-|3-----------|------------|

G|------------|------------|------------|------------|
D|------------|5-----------|------5-5---|------------|
A|0-----------|------------|-------5-5--|----------0-|
E|------------|------3-----|3---------53|1--------1--|
Babe Babe Come on home.....

G|------------|------------|------------|------------|
D|3-----------|------------|---------0--|------------|
A|------353-0-|------2-0---|------0-3-30|3-----------|
E|------------|3---------3-|1-----------|------------|

G|------------|---------020|------------|------------|
D|353535353535|------------|------------|----------5-|
A|------------|3-----------|3-----------|3--------5-5|
E|------------|------------|------------|------------|

G|------------|------------|------------|------------|
D|5-------5-4-|3-----------|3-------4-5-|6-----------|
A|------------|----------03|------------|--------6---|
E|------------|------------|------------|------------|

G|-------11-7-|------------|------------|------------|
D|6-----6--8-7|5---------5-|----------34|5-----------|
A|------------|3-----------|3-----------|----------5-|
E|------------|------------|------------|------------|

G|------------|------------|------------|------------|
D|5-------5-4-|3----------0|3-----------|----------2-|
A|------------|----------3-|------------|------------|
E|------------|------------|------1-2-3-|4-----------|

G|-------1213-|------------|--------5---|------------|
D|6-8---8----8|------------|-------5-5--|------------|
A|------------|3-----3-----|3-----3---5-|--------0-3-|
E|------------|------------|-----------3|1-----------|

G|------------|------------|------------|------------|
D|3-----3-2-0-|------------|-----------0|--------2-3-|
A|------------|------------|--------0-3-|3-----3-----|
E|------------|3-----3-----|1-----1-----|------------|

G|------------|------------|------------|------------|
D|------555555|------------|------22----|---------33-|
A|------------|--3---3-----|3----3--3---|-------03---|
E|333333------|------------|----3----32-|1-----1----1|

G|------------|-------7----|------------|------------|
D|-33-------3-|5-----------|3-----3---65|--------2-3-|
A|3-----------|------------|---------3--|3-----3-----|
E|------------|------------|------------|------------|

G|------------|----5-------|------------|------------|
D|5555555555--|-----5------|--------2---|----3-3-----|
A|----------30|3-----3-----|3-----3--3--|--------0-3-|
E|------------|------------|----------32|1-----------|

G|------------|------------|------------|------------|
D|3-------2-3-|5-----------|3-----------|------------|
A|------------|--------5-7-|--------0-2-|------------|
E|------------|------------|------------|------------|



Get this song at amazon.com      Ebay     Ringtones Ringtones  


Learn to play: Songwriting, Piano, Harmonica, Guitar
Also available at Muzikum: Led Zeppelin - Baby Come On Home lyrics

Related Led Zeppelin Bass Tabs

Celebration Day bass
Over The Hills And Far Away bass
The Ocean-perfect bass
The Crunge bass
Moby Dick - 110% Correct Without A Doubt bass
Fool In The Rain bass
Kashmire bass
Gallows Pole bass
Dazed And Confused bass
Bring It On Home Alternate Version bass
No Quarter bass
Trampeled Underfoot bass
Poor Tom bass
Bring It On Home bass
For Your Life bass
Dancing Days bass
Darlene bass
Down By The Seaside bass
Black Dog bass
Thats The Way bass


Guitar Tabs









All tabs are property and copyright of their owners. All tabs provided for educational purposes only. Privacy Policy, DMCA