Led Zeppelin

Babe Im Gonna Leave You Bass Tabs



More from Led Zeppelin

Led Zeppelin Tabs
Led Zeppelin Chords
Led Zeppelin Bass
Led Zeppelin Lyrics




G|2--22--2--0--00--0--------------------|
D|--------------------4--44--4--3--32-2-|
A|--------------------------------------|
E|--------------------------------------|


G|2--22--2--0--00--0-----------------------------------------------------------|
D|--------------------4--44--4--3--32-2-3--33--3--2--22--2--3--33--3--2--22--2-|
A|-----------------------------------------------------------------------------|
E|-----------------------------------------------------------------------------|

G|2-2222-----------2-2222-----------2-2222-----------2-2222----0000000-| D|-------0-0000000--------0-0000000--------0-0000000--------0----------|
A|---------------------------------------------------------------------|
E|---------------------------------------------------------------------|

G|22222-2-00000-0-----------------|
D|----------------44444-4-33332-2-|
A|--------------------------------|
E|--------------------------------|

Thats it , any questions comments email me @ T-.N.-T@hotmail.com

Cheers !!!



Get this song at amazon.com      Ebay     Ringtones Ringtones  


Learn to play: Songwriting, Piano, Harmonica, Guitar
Also available at Muzikum: Led Zeppelin - Babe Im Gonna Leave You lyrics

Related Led Zeppelin Bass Tabs

Custard Pie bass
The Crunge bass
Black Dog Correct bass
Whole Lotta Love Bass Tabs bass
The Ocean bass
Carouselambra bass
Royal Orleans (complete) bass
We're Gonna Groove bass
Dazed & Confused bass
Dazed And Confused (correct) bass
Friends bass
Misty Mountain bass
Trampled Under Foot bass
Lemon Song Bass Solo bass
Baby Come On Home bass
In The Light bass
In The Evening bass
Tangerine bass
Kashmir bass
Kashmir Intro bass


Guitar Tabs









All tabs are property and copyright of their owners. All tabs provided for educational purposes only. Privacy Policy, DMCA