Led Zeppelin

Babe, I'm Gonna Leave You Tabs



More from Led Zeppelin

Led Zeppelin Tabs
Led Zeppelin Chords
Led Zeppelin Bass
Led Zeppelin Lyrics




Standard Tuning

Intro
E|------0---------|----------------|----------------|----------------|
B|----1---------1-|------3-------1-|------3-------1-|------1-------0-|
G|------------2---|----0-------0---|----2-------2---|----2-------1---|
D|--2-------2-----|--2-------2-----|--0-------0-----|--3-------2-----|
A|0-------0-------|----------------|----------------|----------------|
E|----------------|3-------3-------|2-------2-------|1-------0-------|

E|------3-------0-|------3-------0-|----------------|----------------|
B|----------------|----------------|------3-------1-|------1-------0-|
G|----2-------2---|----0-------0---|----2-------2---|----2-------1---|
D|--2-------2-----|--2-------2-----|--0-------0-----|--3-------2-----|
A|0-------0-------|----------------|----------------|----------------| Play
E|----------------|3-------3-------|2-------2-------|1-------0-------| 7 times

E|0-000-0---0---0-|--0-0-0-0-0-0-0-|
B|1-111-1---8---6-|--6-6-6-6-6-6-6-|
G|2-222-2---9---7-|--7-7-7-7-7-7-7-|
D|2-222-2---7---7-|--7-7-7-7-7-7-7-|
A|0-000-0---0---0-|--0-0-0-0-0-0-0-| Play
E|----------------|----------------| 4 times

E|------3-------0-|------3-------0-|----------------|----------------|
B|----------------|----------------|------3-------1-|------1-------0-|
G|----2-------2---|----0-------0---|----2-------2---|----2-------1---|
D|--2-------2-----|--2-------2-----|--0-------0-----|--3-------2-----|
A|0-------0-------|----------------|----------------|----------------| Play
E|----------------|3-------3-------|2-------2-------|1-------0-------| 4 times

Fourth time, second guitar
E|----------------|----------------|-------71012---7|1012--10881087-8-787|
B|----------------|----------------|------8-------8-|--------------------|
G|----------------|----------------|-----9-------9--|--------------------|
D|----------------|----------------|----------------|--------------------|
A|----------------|----------------|----------------|--------------------|
E|----------------|----------------|----------------|--------------------|
3/ 3/ -3/ 3/

E|----------------|----------------|----------------|----------------|
B|------3-------1-|------3-------0-|------3-------1-|------3-------0-|
G|----2-------2---|----1-------1---|----2-------2---|----1-------1---|
D|--3-------3-----|--2-------2-----|--3-------3-----|--2-------2-----|
A|----------------|----------------|----------------|----------------|
E|1-------1-------|0-------0-------|1-------1-------|0-------0-------|
I can hear it calling me..... I can hear it calling me the way it used to.....

E|------3-------0-|------3-------0-|----------------|----------------|
B|----------------|----------------|------3-------1-|------1-------0-|
G|----2-------2---|----0-------0---|----2-------2---|----2-------1---|
D|--2-------2-----|--2-------2-----|--0-------0-----|--3-------2-----|
A|0-------0-------|----------------|----------------|----------------|
E|----------------|3-------3-------|2-------2-------|1-------0-------|

E|0-000-0---0---0-|--0-0-0-0-0-0-0-|
B|1-111-1---8---6-|--6-6-6-6-6-6-6-|
G|2-222-2---9---7-|--7-7-7-7-7-7-7-|
D|2-222-2---7---7-|--7-7-7-7-7-7-7-|
A|0-000-0---0---0-|--0-0-0-0-0-0-0-| Play
E|----------------|----------------| 4 times

E|----------------|----------------|
B|------5-------8-|------8-------6-|
G|----4-------9---|----7-------7---|
D|--2-------9-----|--7-------7-----|
A|0-------0-------|0-------0-------| Play
E|----------------|----------------|4 times

E|0-0-0-0-0---0---|3-3-3-0-3---3---|2-2-2-0-2---2---|1-1-1-1-0-0-0-0-|
B|1-1-1-0-1---1---|1-1-1-0-1---1---|1-1-1-0-1---1---|1-1-1-1-0-0-0-0-|
G|2-2-2-0-2---2---|0-0-0-0-0---0---|2-2-2-0-2---2---|2-2-2-2-1-1-1-1-|
D|2-2-2---2---2---|2-2-2---2---2---|0-0-0---0---0---|3-3-3-3-2-2-2-2-|
A|0-0-0---0---0---|----------------|----------------|3-3-3-3-2-2-2-2-|
E|----------------|3-3-3---3---3---|2-2-2---2---2---|1-1-1-1-0-0-0-0-|
| | Play 4 times
E|----------------|----------------|----------------|----------------|
B|----------------|----------------|----------------|----------------|
G|----------------|----------------|----------------|----------------|
D|7-7-7---7---7---|--5-5---5---5---|--4-4---4---4---|--3-3---2---2---|
A|7-7-7---7---7---|--5-5---5---5---|--4-4---4---4---|--3-3---2---2---|
E|5-5-5-0-5---5---|0-3-3-0-3---3---|0-2-2-0-2---2---|0-1-1-0-0---0---|

E|1-1-1-1-1---1---|0-0-0-0-0-0-0-0-|1-1-1-1-1---1---|0-0-0-0-0-0-0-0-|
B|1-1-1-1-1---1---|0-0-0-0-0-0-0-0-|1-1-1-1-1---1---|0-0-0-0-0-0-0-0-|
G|2-2-2-2-2---2---|1-1-1-1-1-1-1-1-|2-2-2-2-2---2---|1-1-1-1-1-1-1-1-|
D|3-3-3-3-3---3---|2-2-2-2-2-2-2-2-|3-3-3-3-3---3---|2-2-2-2-2-2-2-2-|
A|3-3-3-3-3---3---|2-2-2-2-2-2-2-2-|3-3-3-3-3---3---|2-2-2-2-2-2-2-2-|
E|1-1-1-1-1---1---|0-0-0-0-0-0-0-0-|1-1-1-1-1---1---|0-0-0-0-0-0-0-0-|
| |
E|----------------|----------------|----------------|----------------|
B|----------------|----------------|----------------|----------------|
G|----------------|----------------|----------------|----------------|
D|3-3-3---3---3---|2-2-2-2-2---2---|3-3-3---3---3---|2-2-2-2-2---2---|
A|3-3-3---3---3---|2-2-2-2-2---2---|3-3-3---3---3---|2-2-2-2-2---2---|
E|1-1-1-0-1---1---|0-0-0-0-0---0---|1-1-1-0-1---1---|0-0-0-0-0---0---|

E|0-000-0---0---0-|--0-0-0-0-0-0-0-|
B|1-111-1---8---6-|--6-6-6-6-6-6-6-|
G|2-222-2---9---7-|--7-7-7-7-7-7-7-|
D|2-222-2---7---7-|--7-7-7-7-7-7-7-|
A|0-000-0---0---0-|--0-0-0-0-0-0-0-| Play
E|----------------|----------------| 4 times

E|----------------|----------------|------------0-1-|3-1-010----0----|
B|----------------|----------------|----------------|--------3-----3-|
G|----------------|----------------|----------------|----------------|
D|----------------|----------------|----------------|----------------|
A|----------------|----------------|----------------|----------------|
E|----------------|----------------|----------------|----------------|
| --3-/ --3---/--3---/|
E|------0---------|----------------|----------------|----------------|
B|----1---------1-|------3-------1-|------3-------1-|------1-------0-|
G|------------2---|----0-------0---|----2-------2---|----2-------1---|
D|--2-------2-----|--2-------2-----|--0-------0-----|--3-------2-----|
A|0-------0-------|----------------|----------------|----------------|
E|----------------|3-------3-------|2-------2-------|1-------0-------|

E|----------------|----------------|------0---------|----------------|
B|1310------------|---1------------|0-1-3---3310-10-|----------------|
G|-------2-2------|--2-----------2-|---------------2|420-------------|
D|----------------|----------------|----------------|----320-0-------|
A|----------------|----------------|----------------|---------32-232-|
E|----------------|----------------|----------------|----------------|
|3/ 3/ 3/ 3/ 3/ 3/ |
E|------0---------|----------------|----------------|----------------|
B|----1---------1-|------3-------1-|------3-------1-|------1-------0-|
G|------------2---|----0-------0---|----2-------2---|----2-------1---|
D|--2-------2-----|--2-------2-----|--0-------0-----|--3-------2-----|
A|0-------0-------|----------------|----------------|----------------|
E|----------------|3-------3-------|2-------2-------|1-------0-------|

E|------3-------1-|------1-------0-|------0---------|------0-------0-|
B|----------------|----0-----------|--------------3-|----------------|
G|----2-------2---|------------0---|----2-------2---|----2-------1---|
D|--2-------2-----|--0-------0-----|--4-------4-----|--3-------2-----|
A|0-------0-------|----------------|----------------|----------------| Play
E|----------------|3-------3-------|2-------2-------|1-------0-------| 4 times
I know..... I know.....

E|0-0-0-0-0---0---|3-3-3-0-3---3---|2-2-2-0-2---2---|1-1-1-1-0-0-0-0-|
B|1-1-1-0-1---1---|1-1-1-0-1---1---|1-1-1-0-1---1---|1-1-1-1-0-0-0-0-|
G|2-2-2-0-2---2---|0-0-0-0-0---0---|2-2-2-0-2---2---|2-2-2-2-1-1-1-1-|
D|2-2-2---2---2---|2-2-2---2---2---|0-0-0---0---0---|3-3-3-3-2-2-2-2-|
A|0-0-0---0---0---|----------------|----------------|3-3-3-3-2-2-2-2-|
E|----------------|3-3-3---3---3---|2-2-2---2---2---|1-1-1-1-0-0-0-0-|
| | Play 4 times
E|----------------|----------------|----------------|----------------|
B|----------------|----------------|----------------|----------------|
G|----------------|----------------|----------------|----------------|
D|7-7-7---7---7---|--5-5---5---5---|--4-4---4---4---|--3-3---2---2---|
A|7-7-7---7---7---|--5-5---5---5---|--4-4---4---4---|--3-3---2---2---|
E|5-5-5-0-5---5---|0-3-3-0-3---3---|0-2-2-0-2---2---|0-1-1-0-0---0---|

E|------0---------|----------------|----------------|----------------|
B|----1---------1-|------3-------1-|------3-------1-|------1-------0-|
G|------------2---|----0-------0---|----2-------2---|----2-------1---|
D|--2-------2-----|--2-------2-----|--0-------0-----|--3-------2-----|
A|0-------0-------|----------------|----------------|----------------|
E|----------------|3-------3-------|2-------2-------|1-------0-------|

E|------1715171517|(17)------------|----------------|----------------|
B|----------------|----------------|----------------|-108108108108108|
G|----------------|----------------|----------------|----------------|
D|----------------|----------------|----------------|----------------|
A|----------------|----------------|----------------|----------------|
E|----------------|----------------|----------------|----------------|
| |
E|------3---------|----------------|----------------|----------------|
B|----1---------1-|------3-------1-|------3-------1-|------1-------0-|
G|------------2---|----0-------0---|----2-------2---|----2-------1---|
D|--2-------2-----|--2-------2-----|--0-------0-----|--3-------2-----|
A|0-------0-------|----------------|----------------|----------------|
E|----------------|3-------3-------|2-------2-------|1-------0-------|

E|--8-------------|----------------|----------------|----------------|
B|10-10-----------|----------------|--------------10|12------12101210|
G|----------------|----------------|----------------|----------------|
D|----------------|----------------|----------------|----------------|
A|----------------|----------------|----------------|----------------|
E|----------------|----------------|----------------|----------------|
| |
E|------3---------|----------------|----------------|----------------|
B|----1---------1-|------3-------1-|------3-------1-|------1-------0-|
G|------------2---|----0-------0---|----2-------2---|----2-------1---|
D|--2-------2-----|--2-------2-----|--0-------0-----|--3-------2-----|
A|0-------0-------|----------------|----------------|----------------|
E|----------------|3-------3-------|2-------2-------|1-------0-------|

E|----------------|----------------|----------------|----------------|
B|1210------------|(10)------------|----------------|----------------|
G|----------------|----------------|----------------|----------------|
D|----------------|----------------|----------------|----------------|
A|----------------|----------------|----------------|----------------|
E|----------------|----------------|----------------|----------------|
| |
E|------3---------|----------------|----------------|----------------|
B|----1---------1-|------3-------1-|------3-------1-|------1-------0-|
G|------------2---|----0-------0---|----2-------2---|----2-------1---|
D|--2-------2-----|--2-------2-----|--0-------0-----|--3-------2-----|
A|0-------0-------|----------------|----------------|----------------|
E|----------------|3-------3-------|2-------2-------|1-------0-------|

E|0-0-0-0-0---0---|3-3-3-0-3---3---|2-2-2-0-2---2---|1-1-1-1-0-0-0-0-|
B|1-1-1-0-1---1---|1-1-1-0-1---1---|1-1-1-0-1---1---|1-1-1-1-0-0-0-0-|
G|2-2-2-0-2---2---|0-0-0-0-0---0---|2-2-2-0-2---2---|2-2-2-2-1-1-1-1-|
D|2-2-2---2---2---|2-2-2---2---2---|0-0-0---0---0---|3-3-3-3-2-2-2-2-|
A|0-0-0---0---0---|----------------|----------------|3-3-3-3-2-2-2-2-|
E|----------------|3-3-3---3---3---|2-2-2---2---2---|1-1-1-1-0-0-0-0-|
| | Play 4 times
E|----------------|----------------|----------------|----------------|
B|----------------|----------------|----------------|----------------|
G|----------------|----------------|----------------|----------------|
D|7-7-7---7---7---|--5-5---5---5---|--4-4---4---4---|--3-3---2---2---|
A|7-7-7---7---7---|--5-5---5---5---|--4-4---4---4---|--3-3---2---2---|
E|5-5-5-0-5---5---|0-3-3-0-3---3---|0-2-2-0-2---2---|0-1-1-0-0---0---|

E|----------------|----710-8--787--|7---------------|----------------|
B|----------------|---8----------10|-1087-----------|----------------|
G|----------------|--9-------------|----------------|--7--5--4-5-4-2-|
D|----------------|----------------|----------------|----------------|
A|----------------|----------------|----------------|----------------|
E|----------------|----------------|----------------|----------------|
| -3/ -3/ --3---/ |
E|------0---------|----------------|----------------|----------------|
B|----1---------1-|------3-------1-|------3-------1-|------1-------0-|
G|------------2---|----0-------0---|----2-------2---|----2-------1---|
D|--2-------2-----|--2-------2-----|--0-------0-----|--3-------2-----|
A|0-------0-------|----------------|----------------|----------------|
E|----------------|3-------3-------|2-------2-------|1-------0-------|

E|----------------|----------------|----------------|----------------|
B|----------------|-------5---5-531|2---------3-5-4-|3-----311-1---3-|
G|4---------------|----------------|----------------|----------------|
D|--2-------------|----------------|----------------|----------------|
A|----------------|----------------|----------------|----------------|
E|----------------|----------------|----------------|----------------|
| 3/ --3-/ |
E|------3---------|----------------|----------------|----------------|
B|----1---------1-|------3-------1-|------3-------1-|------1-------0-|
G|------------2---|----0-------0---|----2-------2---|----2-------1---|
D|--2-------2-----|--2-------2-----|--0-------0-----|--3-------2-----|
A|0-------0-------|----------------|----------------|----------------|
E|----------------|3-------3-------|2-------2-------|1-------0-------|

E|----------------|----------------|----------------|----------------|
B|1---------------|----------------|----------------|----------------|
G|-2--------------|------------0---|0---------------|------0-----0---|
D|--2-------------|------0---2---2-|--2-------------|--0-2-----2--20-|
A|----------------|--0-3-----------|----------------|---------------3|
E|----------------|----------------|----------------|----------------|
|3/ --3-/ 3/|
E|------3---------|----------------|----------------|----------------|
B|----1---------1-|------3-------1-|------3-------1-|------1-------0-|
G|------------2---|----0-------0---|----2-------2---|----2-------1---|
D|--2-------2-----|--2-------2-----|--0-------0-----|--3-------2-----|
A|0-------0-------|----------------|----------------|----------------|
E|----------------|3-------3-------|2-------2-------|1-------0-------|

E|----------------| |-------710------| Play 8 |108-787---7-----|
B|----------------| |------8---------| times |--------10-10878|
G|----------------| |-----9----------| during |----------------|
D|0---------------| |----------------| these |----------------|
A|-30-------------| |----------------| two |----------------|
E|----------------| |----------------| measures |----------------|
| 3/ 3/-3-/3/|
E|------3---------|----------------|----------------|----------------|
B|----1---------1-|------3-------1-|------3-------1-|------1-------0-|
G|------------2---|----0-------0---|----2-------2---|----2-------1---|
D|--2-------2-----|--2-------2-----|--0-------0-----|--3-------2-----|
A|0-------0-------|----------------|----------------|----------------|
E|----------------|3-------3-------|2-------2-------|1-------0-------|

E|----------------|----------------|----------------|----------------|
B|(8)---10--------|----------10-10-|10--------------|----------------|
G|----------------|----------------|----------------|----------------|
D|----------------|----------------|----------------|----------------|
A|----------------|----------------|----------------|----------------|
E|----------------|----------------|----------------|----------------|
| -3-/ |
E|----0-----------|----------------|----------------|----------------|
B|------1-------1-|------3-------1-|------3-------1-|------1-------0-|
G|------------2---|----0-------0---|----2-------2---|----2-------1---|
D|--2-------2-----|--2-------2-----|--0-------0-----|--3-------2-----|
A|0-------0-------|----------------|----------------|----------------|
E|----------------|3-------3-------|2-------2-------|1-------0-------|

E|0-0-0-0-0---0---|3-3-3-0-3---3---|2-2-2-0-2---2---|1-1-1-1-0-0-0-0-|
B|1-1-1-0-1---1---|1-1-1-0-1---1---|1-1-1-0-1---1---|1-1-1-1-0-0-0-0-|
G|2-2-2-0-2---2---|0-0-0-0-0---0---|2-2-2-0-2---2---|2-2-2-2-1-1-1-1-|
D|2-2-2---2---2---|2-2-2---2---2---|0-0-0---0---0---|3-3-3-3-2-2-2-2-|
A|0-0-0---0---0---|----------------|----------------|3-3-3-3-2-2-2-2-|
E|----------------|3-3-3---3---3---|2-2-2---2---2---|1-1-1-1-0-0-0-0-|
| | Play 4 times
E|----------------|----------------|----------------|----------------|
B|----------------|----------------|----------------|----------------|
G|----------------|----------------|----------------|----------------|
D|7-7-7---7---7---|--5-5---5---5---|--4-4---4---4---|--3-3---2---2---|
A|7-7-7---7---7---|--5-5---5---5---|--4-4---4---4---|--3-3---2---2---|
E|5-5-5-0-5---5---|0-3-3-0-3---3---|0-2-2-0-2---2---|0-1-1-0-0---0---|

Freetime
E|1---------------|(1)-------------|0---------------|(0)-------------|
B|1---------------|(1)-------------|0---------------|(0)-------------|
G|2---------------|(2)-------------|1---------------|(1)-------------|
D|3---------------|(3)-------------|2---------------|(2)-------------|
A|3---------------|(3)-------------|2---------------|(2)-------------|
E|1---------------|(1)-------------|0---------------|(0)-------------|
that's when it's calling me

B|1---------------|(1)-------------|0---------------|----------------|
B|1---------------|(1)-------------|0---------------|----------------|
G|2---------------|(2)-------------|4---42424----242|4---------------|
A|3---------------|(3)-------------|2---------------|2---------------|
A|3---------------|(3)-------------|2---------------|2---------------|
E|1---------------|(1)-------------|0---------------|0---------------|
I said that's when it's calling me back

E|----------------|----------------|----------------|----------------|
B|10--10--10--10--|10--10--10--10--|10--10--10--10--|10--10--10--10--|
G|9---9---9---9---|8---8---8---8---|7---7---7---7---|7---7---7---7---|
D|----------------|----------------|----------------|----------------|
A|----------------|----------------|----------------|--------------0-|
E|9---9---9---9---|8---8---8---8---|7---7---7---7---|6---6---6---6---|
| |
E|----------------|----------------|----------------|----------------|
B|------------10--|------------10--|------------10--|------------10--|
G|--------9-------|--------8-------|--------7-------|--------7-------|
D|----7-----------|----7-----------|----7-----------|----7-----------|
A|----------------|----------------|----------------|----------------|
E|----------------|----------------|----------------|----------------|
home.....

E|------0-------0-|--------0-------||
B|--0-------0-----|--0-----0-------||
G|-5---5---5---5--|-5------5-------||
D|7---7---7---7---|7-------7-------||
A|---0---0---0---0|--------0-------||
E|----------------|----------------||



Get this song at amazon.com      Ebay     Ringtones Ringtones  


Learn to play: Songwriting, Piano, Harmonica, Guitar
Also available at Muzikum: Led Zeppelin - Babe Im Gonna Leave You lyrics

Related Led Zeppelin Tabs

Im Gonna Leave You tabs
I'm Gonna Crawl tabs
Hey Lady tabs
Nobodys Fault But Mine tabs
Night Flight Bass tabs
Bron Y Aur Stomp2 tabs
Gallows Pole ( Mandolin ) tabs
Since I tabs
In The Light tabs
Livin' Lovin' Maid tabs
Tea For One tabs
Wah Wah Song tabs
Dazed And Confused tabs
Crunge Bass tabs
In The Evening tabs
The Girl I Love Intro tabs
Immigrant Song (how The West Was Won) tabs
Lemon Song tabs
No Quarter tabs
Achilles Last Stand...better That The Mastas tabs


Guitar Tabs









All tabs are property and copyright of their owners. All tabs provided for educational purposes only. Privacy Policy, DMCA

Online converter - videoconverter.com