Led Zeppelin

As Long As I Have You Tabs



More from Led Zeppelin

Led Zeppelin Tabs
Led Zeppelin Chords
Led Zeppelin Bass
Led Zeppelin Lyrics




As long as I have you

Played in standard tuning

PM PM PM PM PM--| PM PM--| PM PM PM PM PM
|---------------------------------|----------------------------------|
|---------------------------------|----------------------------------|
|---------------------------------|----------------------------------|
|---------------------------------|----------------------------------|
|-0---0---0---0---0---0---0---0---|-0---0---0---0---0---0---0---0----|
|---------------------------------|----------------------------------|


PM PM PM PM PM PM PM PM PM PM PM PM PM PM
|---------------------------------|---------------------------------|
|---------------------------------|---------------------------------|
|---------------------------------|---------------------------------|
|---------------------------------|---------------------------------|
|-0---0---0---0---0---0---0---0---|-0---0---0---0---0---0---0---0---|
|---------------------------------|---------------------------------|



PM PM PM PM PM PM PM
E. S +Q +H E S S S S S S S S S S S S S S E. S +Q +H
|-0--0-(0)--(0)----|-0-----------------------------|-0--0-(0)--(0)----|
|-0--1-(1)--(1)----|-1-----------------------------|-0--1-(1)--(1)----|
|-2--2-(2)--(2)----|-2-----------------------------|-2--2-(2)--(2)----|
|-2--2-(2)--(2)----|-2-----------------------------|-2--2-(2)--(2)----|
|-0--0-(0)--(0)----|-0-0---0---0---0---0---0---0---|-0--0-(0)--(0)----|
|------------------|-------------------------------|------------------|



6/4
PM PM PM PM PM PM PM
E S S S S S S S S S S S S S S E S E S E S E S E S E S E S E S
|-0-----------------------------|-0-0-0-0-0-0-0-0-0-0-0-0-0-0-0-0-|
|-1-----------------------------|-1-1-0-0-1-1-0-0-1-1-0-0-1-1-0-0-|
|-2-----------------------------|-2-2-2-2-2-2-2-2-2-2-2-2-2-2-2-2-|
|-2-----------------------------|-2-2-2-2-2-2-2-2-2-2-2-2-2-2-2-2-|
|-0-0---0---0---0---0---0---0---|-0-0-0-0-0-0-0-0-0-0-0-0-0-0-0-0-|
|-------------------------------|---------------------------------|



4/4
PM PM PM PM PM PM PM PM PM PM PM PM PM PM
E S S S S S S S S S S S S S S S S S S S S S S S S S S S S S S
|-0-----------------------------|---------------------------------|
|-1-----------------------------|---------------------------------|
|-2-----------------------------|---------------------------------|
|-2-----------------------------|---------------------------------|
|-0-0---0---0---0---0---0---0---|-0---0---0---0---0---0---0---0---|
|-------------------------------|---------------------------------|


2/4 4/4
~~ ~
E S E S E S E S E S E S E S E S E S S +S S E S E. E E S S S E S E
|-0-0-0-0-0-0-0-0-0-0-0-0-0-0-0-0-|-0-0-0-(0)-0-0-|----------------------|
|-1-1-0-0-1-1-0-0-1-1-0-0-1-1-0-0-|-1-1-0-(0)-0-1-|----------------------|
|-2-2-2-2-2-2-2-2-2-2-2-2-2-2-2-2-|-2-2-2-(2)-2-2-|----------------------|
|-2-2-2-2-2-2-2-2-2-2-2-2-2-2-2-2-|-2-2-2-(2)-2-2-|-x-2--0---------------|
|-0-0-0-0-0-0-0-0-0-0-0-0-0-0-0-0-|-0-0-0-(0)-0-0-|--------3-0---0-3-0---|
|---------------------------------|---------------|------------3-------3-|


PM PM PM PM PM PM PM--| PM PM PM PM PM PM
S S S S S S S S S S S S S S E S S S S S S S S S S S S S S S S
|--------------------------------|---------------------------------|
|--------------------------------|---------------------------------|
|--------------------------------|---------------------------------|
|-----------------------------7\-|---------------------------------|
|-0---0---0---0---0---0---0------|-0---0---0---0---0---0---0---0---|
|--------------------------------|---------------------------------|


PM PM PM PM PM PM PM PM PM PM--| PM PM PM--|
S S S S S S S S S S S S S S E S S S S S S S S S S S S S S S S
|--------------------------------|---------------------------------|
|--------------------------------|---------------------------------|
|--------------------------------|---------------------------------|
|-----------------------------7\-|---------------------------------|
|-0---0---0---0---0---0---0------|-0---0---0---0---0---0---0---0---|
|--------------------------------|---------------------------------|


6/4 2/4 4/4
E S E S E S E S E S E S E S E S E S S +S S E S E. E E S S S E S E
|-0-0-0-0-0-0-0-0-0-0-0-0-0-0-0-0-|-0-0-0-(0)-0-0-|----------------------|
|-1-1-0-0-1-1-0-0-1-1-0-0-1-1-0-0-|-1-1-0-(0)-0-1-|----------------------|
|-2-2-2-2-2-2-2-2-2-2-2-2-2-2-2-2-|-2-2-2-(2)-2-2-|----------------------|
|-2-2-2-2-2-2-2-2-2-2-2-2-2-2-2-2-|-2-2-2-(2)-2-2-|---2--0---------------|
|-0-0-0-0-0-0-0-0-0-0-0-0-0-0-0-0-|-0-0-0-(0)-0-0-|--------3-0---0-3-0---|
|---------------------------------|---------------|------------3-------3-|


E S S S S S S S S S S S S S S E. S +E E +S E. E E
|-------------------------------|-----------------------|
|-------------------------------|-----------------------|
|-------------------------------|-----------------------|
|-------------------------------|-----------------------|
|-0-0---0---0---0---0---0---0---|-3--5-(5)-3-(3)--------|
|-------------------------------|----------------3--3-4-|


E S S S S S S S S S S S S S S E. S +E E +S E. E E
|-------------------------------|-----------------------|
|-------------------------------|-----------------------|
|-------------------------------|-----------------------|
|-------------------------------|-----------------------|
|-------------------------------|-3--5-(5)-3-(3)--------|
|-5-5---5---5---5---5---5---5---|----------------3--3-4-|


E S S S S S S S S S S S S S S E. S +E E +S E. E E
|-------------------------------|-----------------------|
|-------------------------------|-----------------------|
|-------------------------------|-----------------------|
|-------------------------------|-----------------------|
|-------------------------------|-3--5-(5)-3-(3)--------|
|-5-5---5---5---5---5---5---5---|----------------3--3-4-|


E S S S S S S S S S S S S S S E. S +E E +S E. E E
|-------------------------------|-----------------------|
|-------------------------------|-----------------------|
|-------------------------------|-----------------------|
|-------------------------------|-----------------------|
|-------------------------------|-3--5-(5)-3-(3)--------|
|-5-5---5---5---5---5---5---5---|----------------3--3-4-|


E S S S S S S S S S S S S S S S S S S S S S S S S S S S S S S
|-------------------------------|---------------------------------|
|-------------------------------|---------------------------------|
|-------------------------------|---------------------------------|
|-------------------------------|---------------------------------|
|-------------------------------|---------------------------------|
|-5-5---5---5---5---5---5---5---|-5---5---5---5---5---5---5---5---|



S S S S S S S S S S S S S S S S E E E E E E E E S E. E E S S S E S E
|---------------------------------|-----------------|-----------------------|
|---------------------------------|-1-1-1-1-1-1-1-1-|-----------------------|
|---------------------------------|-2-2-2-2-2-2-2-2-|-----------------------|
|---------------------------------|-3-3-3-3-3-3-3-3-|---2--0----------------|
|---------------------------------|-3-3-3-3-3-3-3-3-|--------3-0---0-3-0----|
|-5---5---5---5---5---5---5---5---|-----------------|------------3-------3--|


S S S S S S S S S S S S S S S S S S S S S S S S S S S S S S S S
|---------------------------------|---------------------------------|
|---------------------------------|---------------------------------|
|---------------------------------|---------------------------------|
|---------------------------------|---------------------------------|
|-0---0---0---0---0---0---0---0---|-0---0---0---0---0---0---0---0---|
|---------------------------------|---------------------------------|


S S S S S S S S S S S S S S S S S S S S S S S S S S S S S S S S
|---------------------------------|---------------------------------|
|---------------------------------|---------------------------------|
|---------------------------------|---------------------------------|
|---------------------------------|---------------------------------|
|-0---0---0---0---0---0---0---0---|-0---0---0---0---0---0---0---0---|
|---------------------------------|---------------------------------|



E E E E E E E E S E. E E S S S E S E
|-----------------|----------------------|
|-1-1-1-1-1-1-1-1-|----------------------|
|-2-2-2-2-2-2-2-2-|----------------------|
|-3-3-3-3-3-3-3-3-|---2--0---------------|
|-3-3-3-3-3-3-3-3-|--------3-0---0-3-0---|
|-----------------|------------3-------3-|



E S Q S E S Q S E S Q S E S Q S
|-1---1----1---1----|-3---3----3---3----|
|-1---1----1---1----|-3---3----3---3----|
|-2---2----2---2----|-4---4----4---4----|
|-0---0----0---0----|-2---2----2---2----|
|-------------------|-------------------|
|-------------------|-------------------|



E S Q S E S Q S E S Q S E S Q S
|-----------------------|-----------------------|
|-10---10----10---10----|-12---12----12---12----|
|-10---10----10---10----|-12---12----12---12----|
|-10---10----10---10----|-12---12----12---12----|
|--8----8-----8----8----|-10---10----10---10----|
|-----------------------|-----------------------|



E E E S S E E E E E E E S S E E E E
|-------------------|-------------------
|-------------------|-------------------
|-------------------|-------------------
|-------------------|-------------------
|-0-0-0-3-4-5-------|-0-0-0-3-4-5-------
|-------------0-3-4-|-------------0-3-4-


E E E S S E E E E E E E S S E E E E
|-------------------|-------------------|
|-------------------|-------------------|
|-------------------|-------------------|
|-------------------|-------------------|
|-0-0-0-3-4-5-------|-0-0-0-3-4-5-------|
|-------------0-3-4-|-------------0-3-4-|


E E E S S E E E E E E E S S E E E E
|-------------------|-------------------|
|-------------------|-------------------|
|-------------------|-------------------|
|-------------------|-------------------|
|-0-0-0-3-4-5-------|-0-0-0-3-4-5-------|
|-------------0-3-4-|-------------0-3-4-|


4/4
W E E E E E E E E E E E E E E E E
|-0--------|-----------------|-----------------|
|-1--------|-----------------|-----------------|
|-2--------|-----------------|-----------------|
|-2--------|-------------0-0-|---2-----2-------|
|-0--------|-0-0---2---------|-----3-----------|
|----------|---------3-------|-----------0-3-4-|


E E E E E E E E E E E E E E E E E E E E E E E E E E E E E E E E
|-----------------|-----------------|-----------------|-----------------
|-----------------|-----------------|-----------------|-----------------
|-----------------|-----------------|-----------------|-----------------
|-------------0-0-|---2-----2-------|-------------0-0-|---2-----2-------
|-0-0---2---------|-----3-----------|-0-0---2---------|-----3-----------
|---------3-------|-----------0-3-4-|---------3-------|-----------0-3-4-


E E E E E E E E E E E E E E E E
|-----------------|-----------------*|-|
|-----------------|-----------------*|-|
|-----------------|-----------------*|-|
|-------------0-0-|---2-----2-------*|-|
|-0-0---2---------|-----3-----------*|-|
|---------3-------|-----------0-3-4-*|-|


Tablature Legend
----------------
h - hammer-on
p - pull-off
b - bend
pb - pre-bend
r - bend release (if no number after the r, then release immediately)
/\ - slide into or out of (from/to "nowhere")
s - legato slide
S - shift slide
- natural harmonic
[n] - artificial harmonic
n(n) - tapped harmonic
~ - vibrato
tr - trill
T - tap
TP - trem. picking
PM - palm muting
\n/ - tremolo bar dip; n = amount to dip
\n - tremolo bar down
n/ - tremolo bar up
/n\ - tremolo bar inverted dip
= - hold bend; also acts as connecting device for hammers/pulls
<> - volume swell (louder/softer)
x - on rhythm slash represents muted slash
- on rhythm slash represents single note slash



Get this song at amazon.com      Ebay     Ringtones Ringtones  


Learn to play: Songwriting, Piano, Harmonica, Guitar
More Led Zeppelin lyrics available at Muzikum

Related Led Zeppelin Tabs

Lets Have A Party tabs
Led Zep I tabs
Presence tabs
Black Dog (correct Main Riff) tabs
Heartbreaker tabs
Celebration Day tabs
The Immagrant Song tabs
Kashmir tabs
Lemon Song Bass tabs
Candy Store Rock tabs
Babe Im Gonna Leave You Remasters tabs
White Summer tabs
Dazed And Confused Tsrts tabs
I'm Gonna Crawl tabs
Babe Im Gonna Leave You tabs
How Many More Times Solo tabs
Black Dog Tab tabs
Darlene Bass tabs
Stairway To Heaven tabs
Bring It Home tabs


Guitar Tabs









All tabs are property and copyright of their owners. All tabs provided for educational purposes only. Privacy Policy, DMCA