Leblanc And Carr

Leblanc And Carr - Falling guitar tab

LeBlanc and Carr – Falling

Tabbed by: skooly_d

Email: webmaster at tabs-database.com.com

Tuning: Standard

Guitar

Intro

e|---0---0-------0---0-----------0-----------0----------------------|

B|----1-----------1----------0-----------0--------------------------|

G|--2--2--------2--2--------0-0---------0-0-------------------------|

D|-2-----------2-----------2---2-------2---2------------------------|

A|0-----0-----0-----0-----3-----3-----3-----3-----------------------|

E|------------------------------------------------------------------|

Verse

e|---0---0-------0---0-------0---0-------0---0----------------------|

B|----1-----------1-----------0-----------0-------------------------|

G|--2--2--------2--2--------0--0--------0--0------------------------|

D|-2-----------2-----------2-----------2----------------------------|

A|0-----0-----0-----0-----3-----3-----3-----3-----------------------|

E|------------------------------------------------------------------|

tabs-database.com[http://www.tabs-database.com.com/]Added by tabs-database.com and our distinguished partners

Get this song at:  amazon.com sheetmusicplus.com

Share your thoughts

0 Comments found