Lacuna Coil

Lacuna Coil - When A Dead Man Walks Solo guitar tab

tuning: standard

acoustic. __3__ __3__

|-------------------------------|---------------------.-----|

|-------------------------------|-------------------4/5--~--|

|------------4h5-4h5p4----------|----4-5-5/7p4-----------7--|

|-5/7--5--7------------(5)-5/7--|--7------------(7)---------|

|-------------------------------|---------------(0)---------|

|-------------------------------|---------------------------|

__3__ _ __3__ ______3_____ ~

|-------------------------8-----------------_-----/7--_--(8)|

|-8-6-5---h6 5h6p5------------6-5h6p5-------8-5----85--/13|

|-------------------7-p5----5----------7p5------5-----------|

|-----------------------------------------------------------|

|-----------------------------------------------------------|

|-----------------------------------------------------------|

Distortion. _______3________

|-gr/12----------15----.---------------10-12/13------------|

|-------15-13-12----12h13-13---10-12-13---------10-~-------|

|--------------------------------------------------10------|

|----------------------------------------------------------|

|----------------------------------------------------------|

|----------------------------------------------------------|

___3___ __3___ ____________3___________

|------------------------15-12h13p12---------------12-------15-12-----~-|

|-13p10-15-13h15p13-12---------------13--15-13-12-----13-10------13--/17|

|-----------------------------------------------------------------------|

|-----------------------------------------------------------------------|

|-----------------------------------------------------------------------|

|-----------------------------------------------------------------------|

I marked out the triplets. end solo.

I found that in this solo

particular, it REALLY helped.

(0) - ghost or optional notes.

gr - grind or growl

. - stacato note

~ - trill

_ - full value

-enjoy; Gregg Gilmore.

Get this song at:  amazon.com sheetmusicplus.com

Share your thoughts

0 Comments found