Lacuna Coil

Lacuna Coil - To Myself I Turned bass tab

Lacuna Coil - To Myself I Turned

You're basically just playing on the chorus.

G||------|------|------|------|------|------|------|------|------|------|------|

D||------|------|------|------|------|------|------|------|------|------|------|

A||------|------|------|------|------|------|------|------|------|------|------|

E||------|------|------|------|------|------|------|------|------|------|------|

------|------|------|------|------|------|------|------|------|

------|------|------|------|------|------|------|------|------|

------|------|------|------|------|------|------|------|------|

------|------|------|------|------|------|------|------|------|

----------------------------|-----------------------------|

----------------------------|-----------------------------|

----------------------------|--2---2-2--2-2--2--2-2-2-2-2-|

--3---3-3--3-3--2--2-2-2-2--|-----------------------------|

------------------------|-----------------------------|

------------------------|-----------------------------|

--3---3-3----0---0-0----|--5---5-5--5-5--5--5-5-3-1-0-|

------------------------|-----------------------------|

----------------------------|-----------------------------|

----------------------------|-----------------------------|

----------------------------|--2---2-2--2-2--2--2-2-2-2-2-|

--3---3-3--3-3--2--2-2-2-2--|-----------------------------|

------------------------|-----------------------------|--------------------|

------------------------|-----------------------------|--------------------|

--3---3-3----0---0-0----|--5---5-5--5-5--5--5-5-3-1-0-|--------------------|

------------------------|-----------------------------|--3--------3--------|

--------------------|-------------------|------|------|------|------|------|

--------------------|-------------------|------|------|------|------|------|

--------------------|-------------------|------|------|------|------|------|

--3--------3--------|--3----------------|------|------|------|------|------|

------|------|------|------|------|------||-----------------------------|

------|------|------|------|------|------||*----------------------------|

------|------|------|------|------|------||*----------------------------|

------|------|------|------|------|------||---3---3-3--3-3--2--2-2-2-2--|

-----------------------------|------------------------|

-----------------------------|------------------------|

--2---2-2--2-2--2--2-2-2-2-2-|--3---3-3----0---0-0----|

-----------------------------|------------------------|

-----------------------------|----------------------------|

-----------------------------|----------------------------|

--5---5-5--5-5--5--5-5-3-1-0-|----------------------------|

-----------------------------|--3---3-3--3-3--2--2-2-2-2--|

-----------------------------|------------------------|

-----------------------------|------------------------|

--2---2-2--2-2--2--2-2-2-2-2-|--3---3-3----0---0-0----|

-----------------------------|------------------------|

------------------------------||------|------|------|------|------|------|

-----------------------------*||------|------|------|------|------|------|

--5---5-5--5-5--5--5-5-3-1-0-*||------|------|------|------|------|------|

------------------------------||------|------|------|------|------|------|

------|------||-----------------------------|-----------------------------|

------|------||*----------------------------|-----------------------------|

------|------||*----------------------------|--2---2-2--2-2--2--2-2-2-2-2-|

------|------||---3---3-3--3-3--2--2-2-2-2--|-----------------------------|

------------------------|-----------------------------|

------------------------|-----------------------------|

--3---3-3----0---0-0----|--5---5-5--5-5--5--5-5-3-1-0-|

------------------------|-----------------------------|

----------------------------|-----------------------------|

----------------------------|-----------------------------|

----------------------------|--2---2-2--2-2--2--2-2-2-2-2-|

--3---3-3--3-3--2--2-2-2-2--|-----------------------------|

------------------------|------------------------------||--------------------|

------------------------|-----------------------------*||--------------------|

--3---3-3----0---0-0----|--5---5-5--5-5--5--5-5-3-1-0-*||--------------------|

------------------------|------------------------------||--3--------3--------|

--------------------|-------------------|------------------|------------------||

--------------------|-------------------|------------------|------------------||

--------------------|-------------------|------------------|------------------||

--3--------3--------|--3----------------|------------------|------------------||

Get this song at:  amazon.com sheetmusicplus.com

Share your thoughts

0 Comments found