Lacuna Coil

Lacuna Coil - The Secret guitar tab

"The Secret"

Taken fron Lacuna Coil's self-titled EP 1998

Transcribed by Dream_On

Tuning : E A D G B E

Intro:

|----------------0-------------------------------7---------------|

|------------0-------0-----------------------0-------0-----------|

|--------0---------------0---------------0---------------0-------|

|----5-----------------------5-------5-----------------------5---|

|7-------------------------------6-------------------------------|

|----------------------------------------------------------------|

|----------------0-------------------------------0---------------|

|------------0-------0-----------------------7-------7-----------|

|--------0---------------0---------------0---------------0-------|

|----5-----------------------5-------5-----------------------5h7-|

|7-------------------------------6-------------------------------|

|----------------------------------------------------------------|

|----------------0-------------------------------7---------------|

|------------0-------0-----------------------0-------0-----------|

|--------5---------------5---------------5---------------5-------|

|----7-----------------------7-------6-----------------------6---|

|0-------------------------------0-------------------------------|

|----------------------------------------------------------------|

|----------------0-------------------------------7---------------|

|------------0-------0---------------0-------5-------5-----------|

|--------5---------------5---------------5---------------5-------|

|----7-----------------------7-------------------------------7---|

|0-------------------------------0-------------------------------|

|----------------------------------------------------------------|

|----------------------------------------------------------------|

|--------0-----------0-------------------0-----------0-----------|

|----5-----------5-----------5-------5-----------5-----------5---|

|3-----------3-----------3-------3-----------3-----------3-------|

|----------------------------------------------------------------|

|----------------------------------------------------------------|

Play the next two measures twice.

G5

|----------------------------------------------------------------|

|--------0-----------0-------------------0-----------0-----------|

|----7-----------7-----------7-------7-----------7-----------7---|

|5-----------5-----------5-------5-----------5-----------5-------|

|----------------------------------------------------------------|

|----------------------------------------------------------------|

F5

|----------------------------------------------------------------|

|--------0-----------0-------------------0-----------0-----------|

|----5-----------5-----------5-------5-----------5-----------5---|

|3-----------3-----------3-------3-----------3-----------3-------|

|----------------------------------------------------------------|

|----------------------------------------------------------------|

Andrea's Verse: Play twice.

A5 C5

|------------0-------------------------------0-------------------|

|--------3-------3-----------------------3-------3---------------|

|----2---------------2-------2-------2---------------2-------2---|

|----------------------------------------------------------------|

|0-----------------------0-------3-----------------------3-------|

|----------------------------------------------------------------|

F5 G5

|------------0-----------------0-------------0-------------------|

|--------3-------3-----------3-----------3-------3---------------|

|----2---------------2---------------2---------------2-------2---|

|3-----------------------3---------------------------------------|

|----------------------------------------------------------------|

|--------------------------------3-----------------------3-------|

Cristina's Verse: Play four times.

F5

|------------7-------------------------------7-------------------|

|--------0-----------------5-------------0-----------------5-----|

|----5-----------------5-------------5-----------------5---------|

|3-----------------3-------------3-----------------3-------------|

|----------------------------------------------------------------|

|----------------------------------------------------------------|

G5

|------------7-------------------------------7-------------------|

|--------0-----------------5-------------0-----------------5-----|

|----5-----------------5-------------5-----------------5---------|

|5-----------------5-------------5-----------------5-------------|

|----------------------------------------------------------------|

|----------------------------------------------------------------|

Chorus: Play four times.

Gtr. 1

|----------------------------------------------------------------|

|----------------------------------------------------------------|

|----------------------------------------------------------------|

|----3---2-------------------------------------------------------|

|0-------------------3-------3/--5---3h5p3/2---------0---2-------|

|------------1-------------------------------3-------------------|

Gtr. 2

|----------------------------------------------------------------|

|----------------------------------------------------------------|

|----------------------------------------------------------------|

|0/--7---------------5-------7-------5---7---9-------10--9-------|

|----------------------------------------------------------------|

|----------------------------------------------------------------|

This part only appears once in the entire song. Too bad. It the

only part in any LC song that is difficult because of its speed.

I have put both guitar parts in the same measure, Gtr. 1 plays the

low notes Gtr. 2 the high notes. Play it twice.

|----------------------------------------------------------------|

|----------------------------------------------------------------|

|12--14--15----------15--14------12--14--15----------15--14------|

|------------13------------------------------12------------------|

|----------------6-8-106-8-108-103-5-6-3-5-6-5-6-----0-----0---0-|

|3-5-6-3-5-6-5-6---------------------------------1-3---1-3---3---|

Repeat bothe verses and the chorus.

Interlude #1: This part is played by itself four times the the

2nd guitar comes in with the chords shown.

A5 C5 F5 G5

|0---------------0---------------0---------------0---------------|

|----3---------------3---------------3---------------3-----------|

|--------2---------------2---------------2---------------2-------|

|----------------------------------------------------------------|

|------------0---------------0---------------0---------------0---|

|----------------------------------------------------------------|

Gtr. 3

|----------------------------------------------------------------|

|----------------------------------------------------------------|

|----------------------------------------------------------------|

|0/--7---------------7/109-------9/10--------0/7-5---------------|

|------------------------------------8---------------------------|

|----------------------------------------------------------------|

Repeat Cristina's Verse.

Interlude #2: This is played with an acoustic guitar. You'll

have to listen to see how the chords are strummed.

Gtr. 2 plays the Gtr. 2 part of the chorus.

Am F G Em

|0---------------1---------------3---------------0---------------|

|1---------------1---------------3---------------0---------------|

|2---------------2---------------0---------------0---------------|

|2---------------3---------------0---------------2---------------|

|0---------------3---------------2---------------2---------------|

|----------------1---------------3---------------0---------------|

This is the little filled played at the end of this part of the song.

|----------------------------------------------------------------|

|----------------------------------------------------------------|

|----------------------------------------------------------------|

|----------------------------------------------------------------|

|5---5---------------------------8/------------------------------|

|3---3---------------0---3---0---8/------------------------------|

Repeat the chorus twice (eight times total) and end the song with

an A5.

Get this song at:  amazon.com sheetmusicplus.com

Share your thoughts

0 Comments found