Lacuna Coil

Lacuna Coil - The prophet said bass tab

Lacuna Coil:The Prophet said

from the album "Comalies"

Tabbed by Derrick Morris

Any questions or comments,

e-mail me @ eternalbass2002@netscape.net

G-----------------------

D-----------------------

A-----------------------

E-----------------------

B-1--1-1-1--1-1-1-1-1-1-

Intro

G----------------------------------------

D----------------------------------------

A----------------------------------------

E----------------------------------------

B1-1-1-1-1-1-1-1-1-1-3-3-3-3-3-3-3-3-3-3-

Verses

G-----------------------------------------

D-----------------------------------------

A-----------------------------------------

E-----------------------------------------

B-4-4-4-4-4-4-4-4-4-4-3-3-3-3-3-3-3-3-3-3-

Verses (cont)

G------------------------

D------------------------

A----0-----------0-------

E-2--------4--2----------

B-------2-----------2--0-

Chorus

Get this song at:  amazon.com sheetmusicplus.com

Share your thoughts

0 Comments found