Lacuna Coil

Lacuna Coil - The ghost woman and the hunter guitar tab

Band - Lacuna Coil

Album - Comalies

Song - The Ghost Woman And The Hunter

Tabbed by - Trey Wright

E-mail - Tw1tchy3y3nokc@AOL.com

Tuning - B-7 - Low to High (BEADGbe)

Intro/Verse: Gtr.1 Fig.1 Fig.2 Fig.3

e|--------------------|-------|---------|-------|

b|--------------------|-------|---------|-------|

G|---9----------------|-------|---------|--7---7|

D|-------12----10---9-|--7---7|--10---10|-------|

A|-0---0-----0----0---|0---0--|0----0---|0---0--|

E|--------------------|-------|---------|-------|

B|--------------------|-------|---------|-------|

Chorus: Gtr.2

e|---------------------------------|

b|---------------------------------|

G|---------------------------------|

D|---------------------------------|

A|-7-------------------------------|

E|-5----3----7----5----3----2----7-|

B|------1----5----3----1----0----5-|

Chorus: Gtr.1

e|-----------------------------|

b|-----------------------------|

G|-4h5-4h5---4h5-4h5-7-4h5-9p7-|

D|---------5-------------------|

A|-----------------------------|

E|-----------------------------|

B|-----------------------------|

Order

Intro/Verse Fig.1

" " Fig.2

" " Fig.1

" " Fig.3

" " Fig.1 12x

Chorus 2x

~pause~

" " Fig.1 8x

Chorus 2x

~pause~

Chorus 2x

Get this song at:  amazon.com sheetmusicplus.com

Share your thoughts

0 Comments found