Lacuna Coil

Lacuna Coil - Self deception guitar tab

Band: "Lacuna Coil"

Track:"Self Deception"

Tuning Drop D DADgbe

tabbed by Mago

Maus and Chris have 7string guitars. I don't know, if they recordet this track on a 7string.I

dont have one, so I tabbed it for a 6string.

[INTRO]

e|--------------------------------------------------------------||

b|--------------------------------------------------------------||

g|----------------------------5------------------------------5--|| X2

D|--5---5---5---7-7----8-8------8----8---8---8---7-7---8-8------||

A|----5---5---5------5------5------5---5---5--------5------5----||

D|--------------------------------------------------------------||

you could also play

e|--------------------------------------------------------------||

b|----------------------------1------------------------------1--||

g|--0---0---0---2-2----3-3------3----3---3---3--2-2---3-3-------|| X2

D|----0---0---0------0------0------0---0---0--------0------0----||

A|--------------------------------------------------------------||

D|--------------------------------------------------------------||

[BRIDGE]

Guitar 1

e|-------------------------------------------||

b|-------------------------------------------|| X2

g|----------------------8--8-8-8-------------||

D|--5--5-5-5--8--8-8-8--8--8-8-8--3--3-3-3---||

A|--5--5-5-5--8--8-8-8--6--6-6-6--3--3-3-3---||

D|--5--5-5-5--8--8-8-8------------3--3-3-3---||

Guitar 2

e|------------------------------------------|---------------------------------------||

b|----13---11---11---10---10---11---11---11-|---13---11---11---10---10---8---8---8--||

X2

g|--0----0---------0---------0---------0----|-0----0---------0---------0-------0----||

D|------------------------------------------|---------------------------------------||

A|------------------------------------------|---------------------------------------||

D|------------------------------------------|---------------------------------------||

[VERSE]

Guitar 1

e|-----------------------------------------------------------------------||

b|-----------------------------------------------------------------------||

g|-----------------------------------------------------------------------|| X2

D|-------------------------------------8-8-8-8-8-8-8-8-------------------||

A|--5-5-5-5-5-5-5-5---8-8-8-8-8-8-8-8--6-6-6-6-6-6-6-6--3-3-3-3-3-3-3-3--||

D|--5-5-5-5-5-5-5-5---8-8-8-8-8-8-8-8-------------------3-3-3-3-3-3-3-3--||

Guitar 2 /w wah, after 1st time Verse Guitar 1

e|------------------------------------------||

b|----------------------3-/4-4-4--4-/6-6-6--||

g|-------------3-/5-5-5---------------------||

D|--3-/5--5-5------------------------------||

A|------------------------------------------||

D|------------------------------------------||

[CHORUS]

Guitar 1

e|--------------------------|--------------------------||

b|--------------------------|--------------------------||

g|------5-------------------|------5-------------------|| x2

D|--5---5--0-3--0-1--1-1-0--|--5---5--0-3--0-0--0-0-0--||

A|--5---3--0-3--0-1--1-1-0--|--5---3--0-3--0-0--0-0-0--||

D|--5------0-3--0-1--1-1-0--|--5------0-3--0-0--0-0-0--||

Guitar 2

e|--------------------------------|---------------------------------||

b|----------4p3-----1-3/4-3-------|----------4p3-----1-3/4-3--------||

g|--0-2h3-0----0-2----------0-0-0-|--0-2h3-0----0-3----------0-0-0--||

D|--------------------------------|---------------------------------|| X2

A|--------------------------------|---------------------------------||

D|--------------------------------|---------------------------------||

[INTERLUDE]

e|----------------------||

b|----------------------||

g|----------------------||

D|---0-8-5--0-7-5--0-5--||

A|----------------------||

D|----------------------||

P.M. . . .

[BRIDGE2]

Guitar 1

e|-------------------------------------------||

b|-------------------------------------------||

g|-------------------------------------------|| x6

D|---0-8-5--0-7-5--0-10--0-8-5--0-7-5--0-5---||

A|-------------------------------------------||

D|-------------------------------------------||

P.M. . . . . . .

After the 2 times guitar 1 ,guitar 2 plays quite the same 1 octave higher 4 times

Guitar 2

e|----6--3----5-3----8-----6-3----5-3----3--||

b|------------------------------------------||

g|------------------------------------------|| X4 (the last 2 times a third guitar plays the same riff, so that it's

D|------------------------------------------|| louder, but that's just a recording thing.I guess, that live,

A|------------------------------------------|| the thirst guitar plays also the 2nd Riff.)

D|------------------------------------------||

[OUTRO]

e|------||

b|------||

g|------||

D|--5--||

A|--5--||

D|--5--||

ORDER:

INTRO

BRIDGE

VERSE

BRIDGE (only Guitar 2 and only 1 times)

VERSE

BRIDGE (only Guitar 2)

CHORUS

INTERLUDE

BRIDGE X2

VERSE

BRIDGE (only Guitar 2)

CHORUS X2

BRIDGE2

CHORUS X2

INTERLUDE

OUTRO

thnx

Mago

Get this song at:  amazon.com sheetmusicplus.com

Share your thoughts

0 Comments found