Lacuna Coil

Lacuna Coil - Our Truth guitar tab

Song- Our Truth

Band- Lacuna Coil

Tabbed by- Anthony Allen

This song is played on a seven string, but can be played if you just tune a six string

same way and miss out the higher string.

Key

/- Slide up

\\- Slide down

*- Pinched harmonic

^- Natural/Artificial harmonic

x- Mute note

~- Vibrato

h- Hammer on

p- Pull off

t- Tapped

tr- Trill

pm- Palm muted

Riff 1-

e||-----||

B||-----||

G||-----||

D||-----||

A||-----||

E||-14\\-||

B||-12\\-||

Riff 2-

e||-------------------------||

B||-------------------------||

G||-------------------------||

D||-------------------------||

A||-------------------------||

E||-----7-7-----8-8-7h8p7h8-||

B||-0-0-----0-0-------------||x3

e||---------------------||

B||---------------------||

G||---------------------||

D||---------------------||

A||---------------------||

E||-----7-7-----8-8-3-2-||

B||-0-0-----0-0---------||

Riff 3-

e||------------------||

B||------------------||

G||------------------||

D||------------------||

A||------------------||

E||-14---------------||

B||-12p0-0-0--12p0-0-||

|pm| |pm|

Riff 4-

e||------------||

B||------------||

G||------------||

D||------------||

A||------------||

E||-------8----||

B||-888777-----||

Riff 5-

e||-------------------------------||

B||-------------------------------||

G||-------------------------------||

D||-------------------------------||

A||-7----3----5----2----8----10---||

E||-7----3----5----2----8----10---||

B||-5----1----3----0----6----8----||

e||----------------------||

B||----------------------||

G||----------------------||

D||----------------------||

A||-7----3----10---11----||

E||-7----3----10---11----||

B||-5----1----8----10----||

Riff 6-

e||------------------------||

B||------------------------||

G||------------------------||

D||------------------------||

A||------------------------||

E||-----7-7-----8-8-7tr8---||

B||-0-0-----0-0------------||

|---------pm-------------||

Riff 7-

e||------------------------------------------------------||

B||------------------------------------------------------||

G||------------------------------------------------------||

D||------------------------------------------------------||

A||------------------------------------------------------||

E||------7---------8----7-8-7-8------7---------8---------||

B||-0--0----0-0--0----0---------0--0----0-0--0----0-7~8~-||

pm pm pm pm pm pm pm pmAdded by tabs-database.com and our distinguished partners

Get this song at:  amazon.com sheetmusicplus.com

Share your thoughts

0 Comments found