Lacuna Coil

Lacuna Coil - No Need To Explain bass tab

Track:No Need To Explain

Artist:Lacuna Coil

Album:Lacuna Coil EP

Tabbed by cK (interloper@vacant.co.uk)

Standard Tuning

Intro

G---------------------

D----------------3-5--

A-5-1------5-1--------

E-----1-3-------------

Riff1 (0:09)

G------------------------------------------

D-------------------------------3333-5555--

A-5555-1111-----------5555-1111------------ x2

E-----------1111-3333----------------------

Riff2 (0:28)

G---------------------------------------

D-----------------3h5-5-5-3-3b-3-2h3p2--

A-5-5--0h1-1-1-1------------------------ x3

E---------------------------------------

then

G------------------------------------

D------------------------------------

A--5-5-0h1-1-1-1---------------------

E----------------x3-3-3-3-x-3-3-3-3--

Riff3 (0:47)

G--------- ------------ ---------------

D--------- ------------ ------5---5----

A-1-1-1-1- x3 -1/13-13-13- ---------------

E--------- ------------ -3--3---3---3--

then

G--------- ------------ ---------------

D--------- ------------ ------5---5--3-

A-1-1-1-1- x3 -1/13-13-13- ---------------

E--------- ------------ -3--3---3------

Riff4 (1:05)

G-----7-------5---------------------

D---7---7-------5-------------------

A-5-------3-3------0-0-0-0-1-1-1-1-- x4

E-----------------------------------

Riff5 (1:24)

G--------------

D----------12--

A-------------- x4

E-10-10-10-----

At (1:34), play Riff1

(1:52) Riff3

(2:11) Riff4

Riff6 (2:30)

G---------------------------------------

D-----------------3h5-5-5-3-3b-3-2h3p2--

A-5-5--0h1-1-1-1------------------------ x3

E---------------------------------------

then

G--------------------------------------

D-----------------3h5-5-5-3-3h5-5-5-5--

A--5-5-0h1-1-1-1-----------------------

E--------------------------------------

Riff7 (2:49)

G------------------------------------------

D------2222-3333h5555----------------------

A-5555----------------5555-3333-0000h1111--

E------------------------------------------

To finish, keep hitting a D and slow down from (3:07)

Get this song at:  amazon.com sheetmusicplus.com

Share your thoughts

0 Comments found