Lacuna Coil

Lacuna Coil - Hyperfast bass tab

Band/Artist: Lacuna Coil

Song: Hyperfast

Instrument: Bass 5-String

Tuning: Standart (B E A D G)

Tabbed by: OnassBass

Intro:

|------------------------|

|------------------------|

|----2-----------2-------| 4x

|-0--------5--0-----3----|

|-------1--------------3-|

Verse:

|------------|

|------------|

|-2-3----1---| 8x

|-----3----2-|

|------------|

Chorus1:

|----------|

|----------|

|----0-1---| 3x

|--------3-|

|-3--------|

Chorus2:

|----------|

|----------|

|----0-1-3-|

|----------|

|-3--------|

Chorus 1 3x

Chorus 2

Verse 4x

Breakdown:

|-----|

|-----|

|-----|

|-1-1-|

|-----|

Interlude1:

|-----17---------17---------17---------------------|

|-------17---------17---------17--------12---17p15-| Don't sure, if this is correct, but it should be ok...

|-15--------15--------15----------12h14------------|

|--------------------------------------------------|

|--------------------------------------------------|

Interlude2:

|-------------------|

|-------------------|

|-------------------|

|-0---00---000---00-|

|-------------------|

Interlude1

Interlude2

Interlude1

Interlude2

Interlude1

Intro 4x

Chorus 1 3x

Chorus 2

Chorus 1 3x

Chorus 2

Chorus 1 3x

Chorus 2

Chorus 1 3x

Chorus 2

Chorus 1 3x

Chorus 2

End:

|---|

|---|

|---|

|---|

|-3-|

Taken from The BassMasta -- http://www.tabs-database.com

Get this song at:  amazon.com sheetmusicplus.com

Share your thoughts

0 Comments found