Lacuna Coil

Lacuna Coil - Heir of a dying day bass tab

Lacuna Coil "Heir of a dying day"

From the album Unleashed Memories

Tabbed by Derrick Morris

any questions or comments, email

me @ eternalbass2002@netscape.net

G-----------------

D-----------------

A-------3--2------

E-3--4------------

intro and verses

G-------------------------------------

D-------------0-----------------------

A----------------1----1-1-1-1-3-------

E-1-0-1-3-3-----------------------0--1

Break @ 2:58

Get this song at:  amazon.com sheetmusicplus.com

Share your thoughts

0 Comments found