Lacuna Coil

Lacuna Coil - Heaven’s A Lie bass tab

Lacuna Coil

Heaven’s A Lie

Tuning E Flat

Intro:

G--------------------------------------------------------------------------

D--------------------------------------------------------------------------

A-----4----------1-------4-------------------------------------------------

E-1------6--3-------1-------6--3--2----------------------------------------

(Repeat 2x)

G--------------------------------------------------------------------------

D--------------------------------------------------------------------------

A---------------4-4-4-4-4-------------------------------1-1-1--------------

E-1-1-1-1-1----------------6-6-6-6-6--3-3-3-3-3----------------------------

“Oh no…there it is again…”

G--------------------------------------------------------------------------

D--------------------------------------------------------------------------

A---------------4-4-4-4-4--------------------------------------------------

E-1-1-1-1-1----------------6-6-6-6-6--3-3-3-3-3--2-2-2---------------------

G--------------------------------------------------------------------------

D--------------------------------------------------------------------------

A---------------4-4-4-4-4-------------------------------1-1-1--------------

E-1-1-1-1-1----------------6-6-6-6-6--3-3-3-3-3----------------------------

“Something wrong…”

G--------------------------------------------------------------------------

D--------------------------------------------------------------------------

A---------------4-4-4-4-4--------------------------------------------------

E-1-1-1-1-1----------------6-6-6-6-6--3-3-3-3-3--2-2-2---------------------

G--------------------------------------------------------------------------

D--3-----------------------------------3-----------------------------------

A-----------------------------------3-------------------------------3ring--

E-----3-3-3-3-3--4--3-3-3-3---------3-3-3-3-3--4--3-3----------------------

“Dolefully desired………”

Chorus

G--------------------------------------------------------------------------

D--------------------------------------------------------------------------

A-----4----------1-------4-------------------------------------------------

E-1------6--3-------1-------6--3--2----------------------------------------

“Set me free…”(Repeat 2x)

G--------------------------------------------------------------------------

D--------------------------------------------------------------------------

A-----4---------------------------4----------------------------------------

E-1--------3---4---4-3 ----1--------3---4---4-3 ---------------------------

“Hmm hmmmm…….”(Repeat 2x)

G--------------------------------------------------------------------------

D--------------------------------------------------------------------------

A---------------4-4-4-4-4-------------------------------1-1-1--------------

E-1-1-1-1-1----------------6-6-6-6-6--3-3-3-3-3----------------------------

“Oh no…there it is again…”

G--------------------------------------------------------------------------

D--------------------------------------------------------------------------

A---------------4-4-4-4-4--------------------------------------------------

E-1-1-1-1-1----------------6-6-6-6-6--3-3-3-3-3--2-2-2---------------------

G--------------------------------------------------------------------------

D--------------------------------------------------------------------------

A---------------4-4-4-4-4-------------------------------1-1-1--------------

E-1-1-1-1-1----------------6-6-6-6-6--3-3-3-3-3----------------------------

“Something wrong…”

G--------------------------------------------------------------------------

D--------------------------------------------------------------------------

A---------------4-4-4-4-4--------------------------------------------------

E-1-1-1-1-1----------------6-6-6-6-6--3-3-3-3-3--2-2-2---------------------

G--------------------------------------------------------------------------

D--3-----------------------------------3-----------------------------------

A-----------------------------------3-------------------------------3ring--

E-----3-3-3-3-3--4--3-3-3-3---------3-3-3-3-3--4--3-3----------------------

“Dolefully desired………”

Chorus

G--------------------------------------------------------------------------

D--------------------------------------------------------------------------

A-----4----------1-------4-------------------------------------------------

E-1------6--3-------1-------6--3--2----------------------------------------

“Set me free…”(Repeat 2x)

G--------------------------------------------------------------------------

D-3-3-3-3-3----------------------------------------------------------------

A--------------------------------------------------------3-----------------

E---------------3-3-3-3-3--4-4-4-4-4--3-3-3-3------------------------------

(Repeat 4x)

Chorus

G--------------------------------------------------------------------------

D--------------------------------------------------------------------------

A-----4----------1-------4-------------------------------------------------

E-1------6--3-------1-------6--3--2----------------------------------------

“Set me free…”(Repeat 2x)

G--------------------------------------------------------------------------

D--------------------------------------------------------------------------

A--------------------------------------------------------------------------

E---1ring------------------------------------------------------------------

Get this song at:  amazon.com sheetmusicplus.com

Share your thoughts

0 Comments found