Lacuna Coil

Lacuna Coil - Halflife guitar tab

Lacuna Coil- Halflife

Tabbed by LC fan

Tuning B E A D G B e

(although the low B is not used in this song)

I figured out all of this song by ear

Key:( )- ghost notes

b - bend note

~ - vibrato

h - hammer on

p - pull off

PM - palm mute

.- indicated palm mutes

Intro I with wah wah

e|-------------------------------------|

B|-------------------------------------|

G|-------------------------------------|

D|-11-12-11-12/15~~-11h12h11h12--------|

A|-------------------------------------|

E|-------------------------------------|

B|-------------------------------------|

Intro II/Verse

|-------------------------------------|

|-------------------------------------|

|-------------------------------------|

|-7---5---4---5----7---5---4---5--5---|

|-5---3---3---5----5---3---3---3--5---|

|-5---3---3---3----5---3---3---3--3---|

|-------------------------------------|

End on

|----|

|----|

|----|

|-7--|

|-5--|

|-5--|

|----|

Fill I Solo at (1:17)

e|-------------------------------------------------------------------------|

B|-------------------------------------------------------------------------|

G|(1412)-12h14-14~~-15-------------------12h14-12~-15-11~-11h12h14p12p11h12|

D|---------------------14h15p14--------------------------------------------|

A|------------------------------12h13p12-----------------------------------|

E|-------------------------------------------------------------------------|

B|-------------------------------------------------------------------------|

e|-------------------------------------|

B|-------------------------------------|

G|-7h8p7~~-----------------------------|

D|------------7h8p7-7h8-8b-10-7-b~-~-~-|

A|-------------------------------------|

E|-------------------------------------|

B|-------------------------------------|

Chorus

|-------------------------------------|

|-------------------------------------|

|-------------------------------------|

|-7---5---4---5----7---5---4---5--5---|

|-5---3---3---5----5---3---3---3--5---|

|-5---3---3---3----5---3---3---3--3---|

|-------------------------------------|

Interlude I

|---------------------------------------------|

|---------------------------------------------|

|---------------------------------------------| 4x

|-------------------6---6/8-8-----------------|

|-5555555--5555555--4---4/6-6-----------------|

|-3333333--3333333--4---4/6-6-----------------|

|---------------------------------------------|

PM....... .......

|--------------------------------------------|

|--------------------------------------------|

|--------------------------------------------| 4x

|---------------------------------6---6/8-8--|

|-5-5-5-5-5-5-5--5-5-5-5-5-5-5----4---4/6-6--|

|-3-3-3-3-3-3-3--3-3-3-3-3-3-3----4---4/6-6--|

|--------------------------------------------|

PM............. .............

Chorus 6x

Interlude II

|--------------------------------|

|--------------------------------|

|--------------------------------| 2x

|--7-------------7---------------|

|--7-------------7---------------|

|--5-------------5---------------|

|--------------------------------|

Chorus 4x

Interlude 1 4x

Chorus 4x

Chorus 6x

End:

|--------|

|--------|

|--------|

|--7-----|

|--5-----|

|--5-----|

|--------|

Added by tabs-database.com and our distinguished partners

Get this song at:  amazon.com sheetmusicplus.com

Share your thoughts

0 Comments found