Lacuna Coil

Lacuna Coil - Entwined bass tab

Lacuna Coil: Entwined

from the album "Comalies"

Tabbed by Derrick Morris

any questions or comments,

email me @ eternalbass2002@netscape.net

G-------------------------------

D-------------------------------

A-----------------------------4-

E-----4---2---1--------4---2----

B-3----------------3------------

G-----------------------

D-----------------------

A-----------------------

E-----------------------

B-3-3---3-3-3-3---3-3-3-

Break @ 2:14

Get this song at:  amazon.com sheetmusicplus.com

Share your thoughts

0 Comments found