Lacuna Coil

Lacuna Coil - Enjoy The Silence Bass guitar tab

-------------------------------------------------------------------------------

ENJOY THE SILENCE - Lacuna Coil

-------------------------------------------------------------------------------

Tabbed By : tabs-database_saxman

e-mail: webmaster at tabs-database.com.com (feel free to email with any suggestions/comments)

Tuning: Normal 5 String (B E A D G)

Guitar + synth intro then:

G|--------------------------------------|

D|--------------------------------------|

A|--------------------------------------| x2

E|-00000000-33333333----------55555555--|

B|-------------------00000000-----------|

Verse:

G|--------------------|

D|--------------------|

A|--------------------| x2

E|-----------3~~~~~~--|

B|-0~~~-3~~~----------|

Chorus:

G|--------------------------------------|

D|--------------------------------------|

A|--------------------------------------|

E|-00000000-33333333----------55555555--|

B|-------------------00000000-----------|

G|----------------------------------------------|

D|----------------------------------------------|

A|----------------------------------------------|

E|-00000000-33333333----------6666666666666666--|

B|-------------------00000000-------------------|

Preverse:

G|----------------------|

D|----------------------|

A|----------------------| x2

E|----------------------|

B|-0~~~-3~~~-0~~~-3~~~--|

Verse:

G|--------------------|

D|--------------------|

A|--------------------| x2

E|-----------3~~~~~~--|

B|-0~~~-3~~~----------|

Chorus:

G|--------------------------------------|

D|--------------------------------------|

A|--------------------------------------|

E|-00000000-33333333----------55555555--|

B|-------------------00000000-----------|

G|----------------------------------------------|

D|----------------------------------------------|

A|----------------------------------------------|

E|-00000000-33333333----------6666666666666666--|

B|-------------------00000000-------------------|

Bridge:

G|--------------------------------------|

D|--------------------------------------|

A|--------------------------------------| x2

E|-00000000-33333333----------55555555--|

B|-------------------00000000-----------|

Break for vox and synths then chorus:

G|--------------------------------------|

D|--------------------------------------|

A|--------------------------------------|

E|-00000000-33333333----------55555555--|

B|-------------------00000000-----------|

G|----------------------------------------------|

D|----------------------------------------------|

A|----------------------------------------------|

E|-00000000-33333333----------6666666666666666--|

B|-------------------00000000-------------------|

Outro:

G|--------------------------------------|

D|--------------------------------------|

A|--------------------------------------| x4

E|-00000000-33333333----------55555555--|

B|-------------------00000000-----------|

Vox and synths lead out.

END

| / slide up

| \\ slide down

| h hammer-on

| p pull-off

| ~ vibrato

| + harmonic

| x Mute note

===============================================================================

Added by tabs-database.com and our distinguished partners

Get this song at:  amazon.com sheetmusicplus.com

Share your thoughts

0 Comments found