Lacuna Coil

Lacuna Coil - Devoted guitar tab

Band Name: Lacuna Coil

Album Title: Karma Code

Tuning:BEADGbe

Intro

(Guitar 1)

e-------------------------------------------------------|

b-------------------------------------------------------|

G-------------------------------------------------------|

D-------------------------------------------------------|

A-2-2-99-2-2-99-2-2-99-2-2-------2-2-99-2-2-99-2-2-99-2-|

E-2-2-77-2-2-77-2-2-77-2-2--8888-2-2-77-2-2-77-2-2-77-2-|

B-0-0----0-0----0-0----0-0--6666-0-0----0-0----0-0----0-|

(Guitar 2)

e------------------------------------------------------------------|

b------------------------------------------------------------------|

G------------------------------------------------------------------|

D------------------------------------------------------------------|

A-9-9-9-8-8-9-9-9-9-9-9-8-8------------9-9-9-8-8-9-9-9-9-9-9-8-8---|

E--------------------------10-10-9-9-9--------------------------10-|

B------------------------------------------------------------------|

Solo

(Guitar 1)

e------------------|

b------------------|

G------------------|x4

D------------------|

A-2----------------|*let the 1st 2 chords ring then strum the rest*

E-2-14-12-12-7-5-8-|

B-0-12-10-10-5-3-6-|

(Guitar 2)

e------------------------|

b---7-6---------5------7-|

G-4-----4-6-7-4---7-44---|

D------------------------|x4

A------------------------|

E------------------------|

B------------------------|

Verse

(Guitar 1)

e-----------------------------------------------|

b-----------------------------------------------|

G-----------------------------------------------|

D-----------------------------------------------|

A-------------------------------2-------2-------|

E-(count 4 measures of silence)-2-4-5-2-2-4-5-7-|

B-------------------------------0-2-3-4-0-2-3-5-|

(Guitar 2)

e------------------------------------------------------------------|

b------------------------------------------------------------------|

G------------------------------------------------------------------|

D------------------------------------------------------------------|x4

A-9-9-9-8-8-9-9-9-9-9-9-8-8------------9-9-9-8-8-9-9-9-9-9-9-8-8---|

E--------------------------10-10-9-9-9--------------------------10-|

B------------------------------------------------------------------|

Pre-Chorus

(Both Guitars)

e-------------------------------------------------------|

b-------------------------------------------------------|

G-------------------------------------------------------|

D-------------------------------------------------------|

A-2-2-99-2-2-99-2-2-99-2-2-------2-2-99-----99-----99---|

E-2-2-77-2-2-77-2-2-77-2-2--8888-2-2-77-7-7-77-5-5-77-4-|

B-0-0----0-0----0-0----0-0--6666-0-0----5-5----3-3----2-|

Chorus

(Both Guitars)

e------------------|

b------------------|

G------------------|x4

D------------------|

A-2----------------|*let the 1st 2 chords ring then strum the rest*

E-2-14-12-12-7-5-8-|

B-0-12-10-10-5-3-6-|

Intro

(Both Guitars)

e-------------------------------------------------------|

b-------------------------------------------------------|

G-------------------------------------------------------|

D-------------------------------------------------------|

A-2-2-99-2-2-99-2-2-99-2-2-------2-2-99-2-2-99-2-2-99-2-|

E-2-2-77-2-2-77-2-2-77-2-2--8888-2-2-77-2-2-77-2-2-77-2-|

B-0-0----0-0----0-0----0-0--6666-0-0----0-0----0-0----0-|

Verse

(Guitar 1)

e-----------------------------------------------|

b-----------------------------------------------|

G-----------------------------------------------|

D-----------------------------------------------|

A-------------------------------2-------2-------|

E-(count 4 measures of silence)-2-4-5-2-2-4-5-7-|

B-------------------------------0-2-3-4-0-2-3-5-|

(Guitar 2)

e------------------------------------------------------------------|

b------------------------------------------------------------------|

G------------------------------------------------------------------|

D------------------------------------------------------------------|x4

A-9-9-9-8-8-9-9-9-9-9-9-8-8------------9-9-9-8-8-9-9-9-9-9-9-8-8---|

E--------------------------10-10-9-9-9--------------------------10-|

B------------------------------------------------------------------|

Pre-Chorus

(Both Guitars)

e-------------------------------------------------------|

b-------------------------------------------------------|

G-------------------------------------------------------|

D-------------------------------------------------------|

A-2-2-99-2-2-99-2-2-99-2-2-------2-2-99-----99-----99---|

E-2-2-77-2-2-77-2-2-77-2-2--8888-2-2-77-7-7-77-5-5-77-4-|

B-0-0----0-0----0-0----0-0--6666-0-0----5-5----3-3----2-|

Chorus

(Both Guitars)

e------------------|

b------------------|

G------------------|x4

D------------------|

A-2----------------|*let the 1st 2 chords ring then strum the rest*

E-2-14-12-12-7-5-8-|

B-0-12-10-10-5-3-6-|

Solo

(Guitar 1)

e------------------|

b------------------|

G------------------|x4

D------------------|

A-2----------------|*let the 1st 2 chords ring then strum the rest*

E-2-14-12-12-7-5-8-|

B-0-12-10-10-5-3-6-|

(Guitar 2)

e------------------------|

b---7-6---------5------7-|

G-4-----4-6-7-4---7-44---|

D------------------------|x4

A------------------------|

E------------------------|

B------------------------|

Pre-Chorus

(Both Guitars)

e------------------------------------------------------------|

b------------------------------------------------------------|

G------------------------------------------------------------|

D------------------------------------------------------------|

A-2-2-99-2-2-99-2-2-99-2-2------------2-2-99-2-2-99-2-2-99-2-|

E-2-2-77-2-2-77-2-2-77-2-2--8888-(x4)-2-2-77-2-2-77-2-2-77-2-|

B-0-0----0-0----0-0----0-0--6666------0-0----0-0----0-0----0-|

Chorus

(Both Guitars)

e------------------|

b------------------|

G------------------|x4

D------------------|

A-2----------------|*let the 1st 2 chords ring then strum the rest*

E-2-14-12-12-7-5-8-|

B-0-12-10-10-5-3-6-|

Outro

(Guitar 1)

e-------------------------------------------------------|

b-------------------------------------------------------|

G-------------------------------------------------------|

D-------------------------------------------------------|

A-2-2-99-2-2-99-2-2-99-2-2-------2-2-99-2-2-99-2-2-99-2-|

E-2-2-77-2-2-77-2-2-77-2-2--8888-2-2-77-2-2-77-2-2-77-2-|

B-0-0----0-0----0-0----0-0--6666-0-0----0-0----0-0----0-|

(Guitar 2)

e------------------------------------------------------------------|

b------------------------------------------------------------------|

G------------------------------------------------------------------|

D------------------------------------------------------------------|

A-9-9-9-8-8-9-9-9-9-9-9-8-8------------9-9-9-8-8-9-9-9-9-9-9-8-8---|

E--------------------------10-10-9-9-9--------------------------10-|

B------------------------------------------------------------------|Added by tabs-database.com and our distinguished partners

Get this song at:  amazon.com sheetmusicplus.com

Share your thoughts

0 Comments found