Lacuna Coil

Lacuna Coil - Daylight Dancer guitar tab

tabs-database.com[http://www.tabs-database.com.com/]

Title: Daylight Dancer

Band: Lacuna Coil

Album: Comalies

Website: www.lacunacoil.it

Community: www.emptyspiral.net

This is my second posted tab and I tabbed it in 2 days. Some parts may not be accurate so you can judge. Please send corrections or comments.

Member: coiler_head

Email: webmaster at tabs-database.com.com AIM: azntm187 YIM: tam6633

(00:00) Clean

|--------------------------------|---------------------------|

|--------------------------------|---------------------------|

|-18--18--13--13--16--16--14--14-|-18--18--13--13--11--11—13-|

|--------------------------------|---------------------------| 2X

|-16--16--11--11--14--14--12--12-|-16--16--11--11---9---9—11-|

|--------------------------------|---------------------------|

(00:17) Dance with me it can’t be so hard...... Clean

|--------------------------------|----------------------------|

|--------------------------------|----------------------------|

|-18--18--13--13--16--16--14--14-|-13--13--14--14--9—-9--8—-8-|

|--------------------------------|----------------------------|

|-16--16--11--11--14--14--12--12-|-11--11--12--12—-7--7--6—-6-|

|--------------------------------|----------------------------|

Clean Distorted

|--------------------------------|----------------|----------------|

|--------------------------------|----------------|----------------|

|-18--18--13--13--16--16--14--14-|-13--13--14--14-|9---------6---8-|

|--------------------------------|----------------|9---------6---8-|

|-16--16--11--11--14--14--12--12-|-11--11--12--12—|7---------4---6-|

|--------------------------------|----------------|----------------|

(00:34) Verse Trying to move down in this grave......

|-----------------------------------------------------|

|-----------------------------------------------------|

|-----------------------------------------------------|

|-11-11-11-11-11-11-11-11----11-11-11-11-11-11-11-11--| 5X

|-11-11-11-11-11-11-11-11----11-11-11-11-11-11-11-11--|

|-9--9--9---9--9--9--9--9-----9--9--9--9--9--9--9--9--|

(00:52)

|---------------------------------------------------|

|---------------------------------------------------|

|---------------------------------------------------|

|---------------------------11---11-11---11---------|

|---------------------------11---11-11---11---------|

|----------------------------9----9--9----9---------|

P.M. . .

Chorus

(1:09)

|---------------------------------------------------------------|

|---------------------------------------------------------------|

|---------------------------------------------------------------|

|-7----4----6--11-11-11-11-11-11-11-11-11-11-11-11-11-11-11-11--| 3X

|-7----4----6--11-11-11-11-11-11-11-11-11-11-11-11-11-11-11-11--|

|-5----2----4---9--9--9--9--9--9--9--9--9--9--9--9--9--9--9--9--|

(1:25)

|---------------------------------------------------------------|

|---------------------------------------------------------------|

|---------------------------------------------------------------|

|-7----4----6--12-12-12-12-12-12-12-12-12-12-12-12-12-12-12-12--|

|-7----4----6--12-12-12-12-12-12-12-12-12-12-12-12-12-12-12-12--|

|-5----2----4--10-10-10-10-10-10-10-10-10-10-10-10-10-10-10-10--|

Outro

Gtr.1 (1:27)

|--------------------------------|----------------------------|

|--------------------------------|----------------------------|

|-18--18--13--13--16--16--14--14-|-13--13--14--14--9—-9--8—-8-|

|--------------------------------|----------------------------| 2X

|-16--16--11--11--14--14--12--12-|-11--11--12--12—-7--7--6—-6-|

|--------------------------------|----------------------------|

Gtr.2 (1:27)

|----------------------------------------------------|

|----------------------------------------------------|

|----------------------------------------------------|

|-11-11-11-11-11-11-11-11---11-11-11-11-11-11-11-11--| 4X

|-11-11-11-11-11-11-11-11---11-11-11-11-11-11-11-11--|

|--9--9--9--9--9--9--9--9----9--9--9--9--9--9--9--9--|

(1:44)

|---------------------------------------------------|

|---------------------------------------------------|

|---------------------------------------------------|

|-11---11-11---11-------------------9-------6---8---|

|-11---11-11---11-------------------9-------6---8---|

|-9----9--9----9--------------------7-------4---6---|

P.M. . .

Verse

(2:00)

|----------------------------------------------------|

|----------------------------------------------------|

|----------------------------------------------------|

|-11-11-11-11-11-11-11-11---11-11-11-11-11-11-11-11--| 4X

|-11-11-11-11-11-11-11-11---11-11-11-11-11-11-11-11--|

|--9--9--9--9--9--9--9--9----9--9--9--9--9--9--9--9--|

Chorus

(2:19)

|---------------------------------------------------------------|

|---------------------------------------------------------------|

|---------------------------------------------------------------|

|-7----4----6--11-11-11-11-11-11-11-11-11-11-11-11-11-11-11-11--| 3X

|-7----4----6--11-11-11-11-11-11-11-11-11-11-11-11-11-11-11-11--|

|-5----2----4---9--9--9--9--9--9--9--9--9--9--9--9--9--9--9--9--|

(2:34)

|---------------------------------------------------------------|

|---------------------------------------------------------------|

|---------------------------------------------------------------|

|-7----4----6--12-12-12-12-12-12-12-12-12-12-12-12-12-12-12-12--|

|-7----4----6--12-12-12-12-12-12-12-12-12-12-12-12-12-12-12-12--|

|-5----2----4--10-10-10-10-10-10-10-10-10-10-10-10-10-10-10-10--|

Interlude

(2:36)

|-------------------------|--------------------------|

|-7---6-------------------|-7---6--------------------|

|-6---5----4---7----6-----|-6---5----4---7----6----6-|

|-4---3----4---7----6-----|-4---3----4---7----6----6-|

|----------2---5----4-----|----------2---5----4----4-|

|---------------------(3X)|------------------------4-|

Outro (2:54)

|--------------------------------|----------------------------|

|--------------------------------|----------------------------|

|-18--18--13--13--16--16--14--14-|-13--13--14--14--9—-9--8—-8-|

|--------------------------------|----------------------------| 2X

|-16--16--11--11--14--14--12--12-|-11--11--12--12—-7--7--6—-6-|

|--------------------------------|----------------------------|

Chorus (3:11)

|---------------------------------------------------------------|

|---------------------------------------------------------------|

|---------------------------------------------------------------|

|-7----4----6--11-11-11-11-11-11-11-11-11-11-11-11-11-11-11-11--| 7X

|-7----4----6--11-11-11-11-11-11-11-11-11-11-11-11-11-11-11-11--|

|-5----2----4---9--9--9--9--9--9--9--9--9--9--9--9--9--9--9--9--|

Play this on 8th time (3:44)

|-------------------------------------------------------------------||

|-------------------------------------------------------------------||

|-------------------------------------------------------------------||

|-7----4----6--12-12-12-12-12-12-12-12-12-12-12-12-12-12-12-12—11-\\-||

|-7----4----6--12-12-12-12-12-12-12-12-12-12-12-12-12-12-12-12—11-\\-||

|-5----2----4--10-10-10-10-10-10-10-10-10-10-10-10-10-10-10-10--9-\\-||

That’s all. Send any comments.

Added by tabs-database.com and our distinguished partners

Get this song at:  amazon.com sheetmusicplus.com

Share your thoughts

0 Comments found