Lacuna Coil

Lacuna Coil - Daylight Dancer Correct Version bass tab

Verse:

|-----------------|

|-----------------|

|-4-4-4-4-4-4-4-4-| 7x

|-----------------|

|-----------------|

Fill in:

|-------------|

|-------------|

|-------------|

|-555-222-4-4-|

|-------------|

Verse 16x

Chorus:

|-------------------------|

|-------------------------|

|------------4444-44-4-44-| 3x

|-5---2---4---------------|

|-------------------------|

|-------------------------|

|-------------------------|

|-----------555555555555--|

|-5---2---4---------------|

|-------------------------|

Verse 15x

Fill in

Verse 8x

Chorus

Interlude:

|---------------|

|---------------|

|---------------| 4x

|-2--1----------|

|-------0--3--2-|

|--------------|

|--------------|

|-4-(let ring)-|

|--------------|

|--------------|

Last Chorus:

|-------------------------|

|-------------------------|

|------------4444-44-4-44-| 7x

|-5---2---4---------------|

|-------------------------|

|-------------------------|

|-------------------------|

|-----------555555555555--|

|-5---2---4---------------|

|-------------------------|

End:

|--------------|

|--------------|

|-4\-----------|

|--------------|

|--------------|

Get this song at:  amazon.com sheetmusicplus.com

Share your thoughts

0 Comments found