Lacuna Coil

Lacuna Coil - Cold guitar tab

Date: Mon, 25 Jun 2001 12:05:32 -0400

From: "�"

Subject: l/lacuna_coil/cold.tab

Title : Cold

Album : In a Reverie

Artist: Lacuna Coil

Tabbed by: Ali Hafeez

Tuning: EADGBe

Key: h = hammer on

p = pull off

^ = hold

/ = slide up

x = mute

b = bend

r = release bend

Song Structure:

Intro riff - 4 times

Verse part - 2 times (intro is played along with

verse for the first time) Pre Chorus - 4 times

Chorus - 4 times

Verse part - 1 time

Pre Chorus - 4 times

Chorus - 4 times

Solo parts

Verse part - 1 time

Pre Chorus - 4 times

Bridge - 4 times

Chorus - 8 times

Intro

e------2---3----2---0----2---3----2---0---------

B---0----0---0----0---0----0---0----0-----------

G-----------------------------------------------

D---2--------0----------------------------------

A---------------------2-------------------------

E------------------------------3----------------

Verse Part

(Play "Riff A" three times and "Riff B" every fourth

time)

Riff A

e----------------------------

B----------------------------

G---9------7------4----------

D---9------7------4------5---

A---7------5------2------5---

E------------------------3---

Riff B

e----------------------------

B----------------------------

G---9------7------4------7---

D---9------7------4------7---

A---7------5------2------5---

E----------------------------

Pre-Chorus

e----------------------------

B----------------------------

G----------------------------

D---2------4------5------7---

A---2------4------5------7---

E---0------2------3------5---

Chorus

e----------------------------

B----------------------------

G---2------4------5------7---

D---2------4------5------7---

A---0------2------3------5---

E----------------------------

Rhythm Guitar played throughout solo

e----------------------------------------------

B----------------------------------------------

G----------------------------------------------

D------0-----------0-----------4-----------5---

A----5---5-------4---4-------2---2-------2---2-

E--7-----------5-----------0-----------3-------

Solo (sort of)

e-------------------------------------12-----------------------------------

B---12^^^^^^^^^^---------14br(14)p12-----------14h15p14--12-14---------------

G----------------------------------14----14------------------14------------

D---------------------------------------------------------------16---------

A--------------------------------------------------------------------------

E--------------------------------------------------------------------------

e--------------------------------------------------------------------------

B-------15----14-----------------------------------------------------------

G----------------14-11-14---------------------------14---------------------

D---/14----14-------------14------------------12-14------------------------

A--------------------------------------------------------------------------

E---------------------------------555h7p5----------------------------------

e--------------------------------------------------------------------------

B--------------------------------------------------------------------------

G--------------------------------------------------------------------------

D---12h14p12p11--11h12p11--------------------------------------------------

A------------------------14-14h16p14p12-12h14p12p10-9h10p9p7-9h10p9h10p9---

E--------------------------------------------------------------------------

e--------------------------------------------------------------------------

B--------------------------------------------------------------------------

G--------14--------11------------------------------------------------------

D---11h12--12p11h12--12p11h12-14-12p11h12-9--------------------------------

A--------------------------------------------------------------------------

E---------------------------------------------555/7-777/9-999/10-101010/12-

Bridge

e---------------------------

B---------------------------

G----6----5----6------------

D----x----x----x----6-------

A----4----3----4----x-------

E-------------------4-------

Well, that's it. You can figure out the strumming

pattern from the song or as you

see fit. Enjoy!

Get this song at:  amazon.com sheetmusicplus.com

Share your thoughts

0 Comments found