Lacuna Coil

Lacuna Coil - Cold bass tab

Mxtabs.net

Lacuna Coil

Cold

play slow at first then hard

g------------------------------------------------

d------------------------------------------------ x3

a7-5-2---7-5-2---7-5-2---7-5-2-5-----------------

e------3-------3-------3-------------------------

g------------------------------------------------

d------------------------------------------------ x2

a------------------------------------------------

e-0-0-0-2-2-2-3-3-3--5--5------------------------

g------------------------------------------------

d------------------------------------------------ x2

a------------------------------------------------

e-0~-2--3--5~------------------------------------

g------------------------------------------------

d------------------------------------------------ x4

a-0~-2--3--5~------------------------------------

e------------------------------------------------

g------------------------------------------------

d------------------------------------------------

a7-5-2---7-5-2---7-5-2---7-5-2-5-----------------

e------3-------3-------3-------------------------

g------------------------------------------------

d------------------------------------------------ x2

a------------------------------------------------

e-0-0-0-2-2-2-3-3-3--5--5------------------------

g------------------------------------------------

d------------------------------------------------ x2

a------------------------------------------------

e-0~-2--3--5~------------------------------------

g------------------------------------------------

d------------------------------------------------ x4

a-0~-2--3--5~------------------------------------

e------------------------------------------------

g------------------------------------------------

d------------------------------------------------

a------------------------------------------------ x8

e-7--5--2--5-------------------------------------

g------------------------------------------------

d------------------------------------------------ x3

a7-5-2---7-5-2---7-5-2---7-5-2-5-----------------

e------3-------3-------3-------------------------

g------------------------------------------------

d------------------------------------------------ x2

a------------------------------------------------

e-0-0-0-2-2-2-3-3-3--5--5------------------------

g------------------------------------------------

d------------------------------------------------ x2

a------------------------------------------------

e-0~-2--3--5~------------------------------------

g------------------------------------------------

d------------------------------------------------ x4

a-5-5-5-3-3-3-5-5-5------------------------------

e-------------------5-5-5------------------------

g------------------------------------------------

d------------------------------------------------ x4

a-0~-2--3--5~------------------------------------

e------------------------------------------------

play this till the end of the song

g------------------------------------------------

d------------------------------------------------

a-0-0-0-2-2-2-3-3-3-5--5-------------------------

e------------------------------------------------

Tabbed by Masochistface

Hollowpinhead@hotmail.com

Get this song at:  amazon.com sheetmusicplus.com

Share your thoughts

0 Comments found