Lacuna Coil

Lacuna Coil - Closer Bass guitar tab

Lacuna Coil - Closer 'Karmacode'

Intro/Outro x3

|-----------|---------|----------------|--------|----|

|----5-5-3-3|*--------|2-2-----5-5-3-3*|--------|2-2-|

|0-0--------|*--------|----0-0--------*|--------|----| (distortion)

|-----------|-0-4-2-40|----------------|0-4-2-40|----|

|-----------|---------|----------------|--------|----|

Chorus

|----------------|

|------------5555|

|000005555555----|

|----------------|

|----------------|

Verse |variations

|----------|----------|----------|

|----------|----------|----------|

|0---------|0---------|0---------|

|---3------|---3------|---3------|

|------3--1|------3-01|------3013|

The Bridge is just synth & vocals.

(if you want put bass synth effect and play the verse slowly)

The structure is really simple:

Intro/Outro

Chorus

Verse

Chorus

Verse

Chorus

Bridge

Chorus

Intro/Outro

Cool easy song to play.

Tabbed by Wesfield.Added by tabs-database.com and our distinguished partners

Get this song at:  amazon.com sheetmusicplus.com

Share your thoughts

0 Comments found