Lacuna Coil

Lacuna Coil - Circle bass tab

First Part

E---------------------------------------------------------------

B----5--0-----5--0--3--1----5--0-----5--0--3--1-----------------

G--2-------2-------------2--------2-----------------------------

D---------------------------------------------------------------

A---------------------------------------------------------------

E---------------------------------------------------------------

X 2

Second Part

E---------------------------------------------------------------

B---------------------------------------------------------------

G---------------------------------------------------------------

D---------------------------------------------------------------

A-7-7-7--3-3-3---2-2-2---5-5-5---7-7-7---3-3-3---2-2-2----5-5-5-

E-5-5-5--1-1-1---0-0-0---3-3-3---5-5-5---1-1-1---0-0-0----3-3-3-

X 2

(THE FIRST OF EACH SET OF THREE IS HELD ON

LONGER THAN THE OTHER TWO)

Third Part

E---------------------------------------------------------------

B---------------------------------------------------------------

G---------------------------------------------------------------

D---------------------------------------------------------------

A-10----5--6--8--3----5--6--8--10----5--6--8--3----5--6--8------

E--8----3--4--6--1----3--4--6---8----3--4--6--1----3--4--6------

X 1

(AFTER 10+8 AND 3+1 THERE IS A LONGER GAP

THAN AFTER THE OTHERS)

Fourth Part

E---------------------------------------------------------------

B---------------------------------------------------------------

G---------------------------------------------------------------

D---------------------------------------------------------------

A-12---7-8---5-7---7-8-8-10-10----12---7-8---5-7---7-8-8-10-10--

E-10---5-6---3-5---5-6-6-8---8----10---5-6---3-5---5-6-6-8---8--

X 1

(HOLD EVERY 12+10 AND EVERY 8+6 WHICH IS EITHER

AFTER 7+5 OR ANOTHER 8+6 LONGER THAN THE OTHERS)

FIRST PART AGAIN X 1

SECOND PART AGAIN X 2

THIRD PART AGAIN X 1

FOURTH PART AGAIN X 2

Fifth Part

E-----------------------------------------------------------------

B--------1--0-----------0-----------------1--0-----------0--------

G--------------------------------0-------------------------------0

D--2--3--------0-2-0-------0-2-----2--3--------0-2-0--------0-2---

A-----------------------------------------------------------------

E-----------------------------------------------------------------

X 2

(LISTEN TO THE SOND FOR THE RHYTHM

OF THE FIFTH PART [THE SOLO BIT])

Sixth Part

E--------0--------------0--------0-----------0--------------------

B--0--1-----3--0--1--3-----0--1-----3--0--3-----1-----------------

G-----------------------------------------------------------------

D-----------------------------------------------------------------

A-----------------------------------------------------------------

E-----------------------------------------------------------------

X 2

(MISS OUT THE LAST 1 ON THE B STRING

ON THE SECOND TIME ROUND)

(LISTEN TO THE SONG FOR THE RHYTHM

OF THE SIXTH PART [THE SECOND PART OF SOLO])

FOURTH PART AGAIN X 2

Get this song at:  amazon.com sheetmusicplus.com

Share your thoughts

0 Comments found