Lacuna Coil

Lacuna Coil - Angels Punishment bass tab

Lacuna Coil: Angel's Punishment

from the Album "Comalies"

Tabbed by Derrick Morris

any questions or comments,

email me @ eternalbass2002@netscape.net

G---------------

D---------------

A---------------

E-----4---------

B-1-------4---2-

G----------------------------------------------------------------

D----------------------------------------------------------------

A-----------------2-----------------------------------------------

E-----4-------1----------------------------------------------------

B-1-------4-----------3---4---6--8-------------------------------------

break @ 1:58

Get this song at:  amazon.com sheetmusicplus.com

Share your thoughts

0 Comments found