Lacuna Coil

Lacuna Coil - Aeon guitar tab

Aeon from the Comalies Album.

Standard tuning

No timings are set, so listen to the song to get it.

1rst guitar

12x |-----------------------------|

|-----------------------------|

|-----------------------------|

|-----24---------------------|

|----------5---57-5----------|

|0-0---------7--------4-57---|

3x |------------------|

|------------------|

|------------------|

|------------------|

|57-5-------------|

|------4-57-------|

2nd guitar (plays in the fifth time of the 1rst guitar)

2x |------------------------------------------|

|------------------------------------------|

|------------------------------------------|

|2-0-0-------------------------------------|

|-------0-0-02-24-4/5-4------------------|

|-----------------------------4-5-4----2-0-|

4x |------------------------------------------|

|------------------5-----------------------|

|45-------5-------------------------------|

|--------5---5---5-------------------------|

|23---3-------3---------------------------|

|------------------------------------------|

Get this song at:  amazon.com sheetmusicplus.com

Share your thoughts

0 Comments found