Lacuna Coil

Lacuna Coil - 1 19 guitar tab

Fig1.

|------------------------------------------

|--------------10------------8-------------

|-----10---9--------10---9-------10---9----

|---7----7---7----7----7---7---7----7------

|------------------------------------------

|------------------------------------------

Fig2.

|------------------------------------------

|-----10------------8----------------------

|----------10---9-------10---7---9b10r9----

|---7----7----7---7---7----7---7-----------

|------------------------------------------

|------------------------------------------

(Intro starts with Fig1...and then alternates between Fig1. and Fig2.

Rhythm Guitar behind intro sounds suppressed...but is the same as the verse)

Verse

|-------------------------

|-------------------------

|-------------------------

|---7--8--7--8-/-11~------ (slightly delayed slide from the 8th fret

|---7--8--7--8-/-11~------ listen to the CD for timing)

|---7--8--7--8-/-11~------

Interlude (seems to be the day...)

|-----------------------------0-------

|-------3-----------3-------3---3-----

|-----2-------2---2-------2-------2--- (i CANNOT hear this part clearly at all)

|---0-------0-----------0-------------

|---------1-----3-----0---------------

|-------------------------------------

Chorus (hiding all my fear...)

|-------------------------

|-------------------------

|---7--2------------5-----

|---7--2--3~---5----5-----

|---5--0--3~---5----3-----

|---------3~---5----------

Solo (not exact mind you...cant' hear some parts...but anyway close enuff for me)

|------------------10-9---13-12-10---9h10p9----9h10p9-----12h13p12p10----

|-------------10-8-------------------------10--------10------------------

|---------9-7------------------------------------------------------------

|---7-7-8----------------------------------------------------------------

|---7--------------------------------------------------------------------

|---7--------------------------------------------------------------------

|---9h10p9---------------------------------------------12----------------

|---------10~--10-8----8---------10----------14/10-10----8-10/-15-------

|-------------------10---9~--9h10--------10-9----------------------14----

|------------------------------------7-8---------------------------------

|------------------------------------------------------------------------

|------------------------------------------------------------------------

|---17-15--17-15-15-13--15-13-13-12-13-12--------------------------------

|------------------------------------------8p7p5-------------------------

|-----------------------------------------------7p6p5---------------18-19

|----------------------------------------------------7-5-7~---19-17------

|------------------------------------------------------------------------

|------------------------------------------------------------------------

|-----------------------------------------------------10------8----------

|---18p17p15---------------------------------13-13~------10-8---10-8-8h10

|------------19p17p14-17-19-21b22r21-14~--14-----------------------------

|------------------------------------------------------------------------

|------------------------------------------------------------------------

|------------------------------------------------------------------------

|----------------8-10-------------17p12h17p1212p8h12p88p5h8p5----------

|---10-8----8/10------8----------------------------------------8p5h8p5-3~

|--------10-------------10-7-9~------------------------------------------

|------------------------------------------------------------------------

|------------------------------------------------------------------------

|------------------------------------------------------------------------

|--------3-3-------10------------(7)b8r7p5-(8)b10r8-7p5-5~--10~----------

|---5--------3~-------8~--10--5~-----------------------------------------

|-----2~-----------------------------------------------------------------

|------------------------------------------------------------------------

|------------------------------------------------------------------------

|------------------------------------------------------------------------

Get this song at:  amazon.com sheetmusicplus.com

Share your thoughts

0 Comments found