Lacuna Coil

Lacuna Coil - 1 19 bass tab

Lacuna Coil: 1:19

from the album Unleashed Memories

Tabbed by Derrick Morris

any questions or comments,

email me @ eternalbass2002@netscape.net

G---------------

D---------------

A-------------3-

E-4--5--4--4----

B---------------

Verses

G---------------------------------

D---------------------------------

A---------------------------------

E-4-------------4--------2--------

B---4--5--7--------4--6------2--0-

G---------------

D---------------

A-4-------------

E----4--------2-

B-------0--2----

Get this song at:  amazon.com sheetmusicplus.com

Share your thoughts

0 Comments found