Korn

Korn - Y all want a single guitar tab

Ok this is one of the easiest songs in the world.

Drop D Tuning(D,A,D,G,B,E)

Intro/Outro:

E|--------------------------------------------------------------|

B|--------------------------------------------------------------|

G|--------------------------------------------------------------|

D|--------------------------------------------------------------|

A|--1-0---1-0---1-0---1-0---1-0---1-0---1-0---------------------|

D|--1-0---1-0---1-0---1-0---1-0---1-0---1-0---------------------|

Pre-Chorus:

E|--------------------------------------------------------------|\

B|--------------------------------------------------------------| \

G|--------------------------------------------------------------| \ X4

D|--------------------------------------------------------------| /

A|--1-0-3-3-3-3-2-0-1---1-0-3-3-3-3-2-0-1-----------------------| /

D|--1-0-3-3-3-3-2-0-1---1-0-3-3-3-3-2-0-1-----------------------|/

Chorus:

E|------------------------------------------------------------------|

B|------------------------------------------------------------------|

G|------------------------------------------------------------------|

D|------------------------------------------------------------------|

A|--1-0--0--0--0-0-1-0--0--0--0-0-1-0--0--0--0-0-1-0--0--0--0-0-1---|

D|--1-0--0--0--0-0-1-0--0--0--0-0-1-0--0--0--0-0-1-0--0--0--0-0-1---|

Bridge:

E|--------------------------------------------------------------|

B|--------------------------------------------------------------|

G|--------------------------------------------------------------|

D|--------------------------------------------------------------|

A|--0--1/3--3/8--8-7-8-9----------------------------------------|

D|--0--1/3--3/8--8-7-8-9----------------------------------------|

Order:

Intro/Outro

Pre-Chorus

Chorus

Bridge

Chorus

Bridge(x4)

Intro/Outro

Get this song at:  amazon.com sheetmusicplus.com

Share your thoughts

0 Comments found