Korn

Korn - Swallow guitar tab

Band:KoRn

Song:Swallow

strings tuned down 1/2 step

Chorus

B---1----1--1-1-------2----2---2--2-2

E-------------------------------------------

A-------------------------------------------

D-------------------------------------------

G-------------------------------------------

Verse

B---7------5-----3-----------------------------

E---------------------7-6-5--------------------

A------------------------------------------------

D------------------------------3-3-3----4-4-4

G-------------------------------------------------

Breakdown

B---0-0-3H4---0-0--0--7

E-----------------------------

A-----------------------------

D-----------------------------

G-----------------------------

chorus X4

verse X6

chorus X2

verse X6

chorus X4

breakdown X8

intro X8 then, just keep playing until the end

Get this song at:  amazon.com sheetmusicplus.com

Share your thoughts

0 Comments found