Korn

Korn - K@#0%! guitar tab

K@#0%! By KoRn

Guitarist: Head + Munky

Album: Life Is Peachy

Dif.: 9

Tabbed by Twiggy5

NOTE: Tune down a whole step to (A D G C F A D)

Intro (Gtr. 1) (clean)

G|--11\10----9---8--8----9\---8--8--|-%-|-%-|-11\10----9---8--8----|

D|--10\-9----8---7--7----8\7--7--7--|-%-|-%-|-10\-9----8---7--7----|

A|---------0---------0--------------|-%-|-%-|--------0-------------|

(palm mute open notes)-

Intro 2/Chorus (Both Guitars) (w/ dist.)

G|-5\4--3-3---2--2--2-4\3-2---2--|-%-|

D|-5\4--3-3---2--2--2-4\3-2---2--|-%-|

A|-3\2--1-1---0--0--0-2\1-0---0--|-%-|

Verse (Both Guitars)

D|--3-----------------------------|

A|------5-------------------------|

F|--------------------------------|

C|--------------------------------|

G|--------------------------------|

D|--------------------------------|

A|----------0-0---0---0----3--1---| 7x

NH---| pm------------------|

Fill 1 (Both Guitars)

D|--------------------------|

A|-0-------0-0---0----0-----|

Verse Part 2/Bridge Part 2 (Both Guitars)

G|-5--5-5/6-6-6-6/7-7-7--8/9-10/11--|

D|-5--5-5/6-6-6-6/7-7-7--8/9-10/11--|

A|-3--3-3/4-4-4-4/5-5-5--6/7--8/-9--| 4x

Fill 2 (Both Guitars) (Last "So what..") before break

G|--5\4--3-3---2---2--2-4-3-2--|

D|--5\4--3-3---2---2--2-4-3-2--|

A|--3\2--1-1---0---0--0-2-1-0--|

Bridge (Both Guitars) ("Found something to say�.")

A|---------14-----------------14---|

F|---------17-----------------17---|

C|---------------------------------|

G|---------------------------------|

D|---------------------------------|

A|--0--0----------0---0------------|

pm---| pm----|

Fill 3 (Both Guitars) (the last "punk ass bitch" in Bridge)

G|-5--5-5/6-6-6-6/7-7\6-6\5-5\\3---|

D|-5--5-5/6-6-6-6/7-7\6-6\5-5\\3---|

A|-3--3-3/4-4-4-4/5-5\4-4\3-3\\1---|

Outro (Both Guitars)

G|--11\10---9---8---8-----9\8--8--8--|

D|--10\-9---8---7---7-----8\7--7--7--|

A|---------0-----------0-------------| 4x

Song Structure: -

Intro (Gtr. 1)

Intro 2 (Both Guitars)

Verse (Both Guitars)

Fill 1 (Both Guitars)

Verse Part 2 (Both Guitars)

Chorus (Both Guitars) ("I don�t know what to say�")

Verse (Both Guitars)

Fill 1 (Both Guitars)

Verse Part 2 (Both Guitars)

Chorus (Both Guitars)

Fill 2 (Both Guitars)

Pause for Jon to sing ("I have fought to find..")

Bridge (Both Guitars)

Bridge Part 2 ("*** you�.")

Chorus (Both Guitars)

Outro (Both Guitars)

There ye go� A nice anti radio song by KoRn. It�s actually very anti social. Anti social and anti family is everything this world is made of. Well anyways if you have any comments, corrections or suggestions email me at ToXic345x@yahoo.com

Get this song at:  amazon.com sheetmusicplus.com

Share your thoughts

0 Comments found