Korn

Korn - 4u bass tab

BASS

KORN

4U

ALBUM-ISSUES

BASSIST-FIELDY

TABBED BY BILLY MILNE

EADG

VERSE

G----------3~~~~~~~~~~------

D-0~~~~~~~------------------

A---------------------------

E---------------------------

G----------3~~~~~~~~~~------

D-0~~~~~~~------------------

A---------------------------

E---------------------------

G----------3~~~~~~~~~~------

D-0~~~~~~~------------------

A---------------------------

E---------------------------

END

G--------------

D-0~~~~~~------

A--------------

E--------------

EASY.

Get this song at:  amazon.com sheetmusicplus.com

Share your thoughts

0 Comments found