Kispal Es A Borz

Kispal Es A Borz - A 60-as Vek Vge Bass guitar tab

by szobi25

Intro & Interlude:

G------------------------------|

D--------------10--------------|

A--12-12-10p12----12-12----10--|

E-----------------------12-----|

Verse:

G-------8-| |-------10-| |-------15-| |-------|

D----10---| x8 |----12----| x4 |----17----|x4 |-2s5---|

A--8------| |-10-------| |-15-------| |----1--|

E---------| |----------| |----------| |-------|

Bass under the solo:

G------------------------------|

D------------------------7s-5--|

A--3-3-------0-1-2s3-3-3-------|

E------0-2-3-------------------|

G--------------------------3s5-3----|

D--------------------------------5--|

A--3-3-3-3-3-------1-2-3-3----------|

E------------0-2-3------------------|

Solo:

G------5----------5------|

D--5-8--------5-8--------|

A--------6-3--------6----|

E------------------------|Added by tabs-database.com and our distinguished partners

Get this song at:  amazon.com sheetmusicplus.com

Share your thoughts

0 Comments found