Killswitch Engage

Killswitch Engage - A Bid Farewell guitar tab

. - palm mute / - slide up to

- slide down to ~ - vibrato

h - hammer on b - Bend

p - pull off Suffixes for bend

t - tap f - full bend h - half bend

ph - pinched harmonic q - quarter bend t - tap bend

* - see comment ^ - Hold bend r release bend

x - Stuccatto ~ - vibrato bend

, - slight palm mute () - ghost note, sustained note

" - tremolo note - Trill

KsE RULE and this is probably their most simple song to play and there's

loads of wrong tabs out there,this is how i figured it out and it sounds

near on perfect

Tuning C G C F A D

I can't figure out what effect joel uses in this intro.

I use a tiny bit of chorus and a slight distortion, sounds all good to me

intro

|-------------------------------------------------------------------|

|-------10-------10-------10h11-------------------------------------|

|---8--------8--------8---------------------------------------------|

|-0---0----0---0----0---0-------------------------------------------|

|-------------------------------------------------------------------|

|-------------------------------------------------------------------|X4

Heavy distortion

|-------------------------------------------------------------------|

|-------------------------------------------------------------------|

|-------------------------------------------------------------------|

|-000000--000000--00000000-3----------------------------------------|

|-000000--000000--00000000-3----------------------------------------|guitar 1 x2

|-000000--000000--00000000-3----------------------------------------|guitar 2 x4

...... ...... ........

then guitar 1 the intro riff over the top with distortion x2

verse riff 1

|----------------------------------------------------------------------------|

|----------------------------------------------------------------------------|

|----------------------------------------------------------------------------|

|----------------------------------------------------------------------------|

|--------00---------00------------------------00---------00------------------|

|-0001/2-00--0001/2-00--0001/2-0002/3--0001/2-00--0001/2-00--0001/2-0002/3---|

... .. ... .. ... ... ... .. ... .. ... ...

|-------------------------------------------------------------------|

|-------------------------------------------------------------------|

|-------------------------------------------------------------------|

|-------------------------------------------------------------------|

|-------------------------------------------------------------------|

|-0001/2-00---------------------------------------------------------|

... ..

verse riff 2

|-------------------------------------------------------------------|

|-------------------------------------------------------------------|

|-------------------------------------------------------------------|

|-000000--000000--00000000-3--000000--000000--00000000-3------------|

|-000000--000000--00000000-3--000000--000000--00000000-3------------|

|-000000--000000--00000000-3--000000--000000--00000000-3------------|

...... ...... ........ ...... ...... ........

verse riff 3

|------------------------------------------------------------------------|

|------------------------------------------------------------------------|

|----------8/9------------8/9------------8/9-----------------------------|

|------00--------8/9--00--------8/9--00---------9/10---------------------|

|------00--6/7---6/7--00--6/7---6/7--00--6/7-00-7/8----------------------|

|-

Get this song at:  amazon.com sheetmusicplus.com

Share your thoughts

0 Comments found