Killing Heidi

Killing Heidi - Weir2 guitar tab

This is an excellent song from another promising aussie band. I tabbed this off the panel's

unplugged performance. If you wanna play it on electric, just play the chords with distortion

and as power chords.

VERSE                   PRE- CHORUS

  D       G   A           C           |G

E-----2-0---------------|-0-0-0-0-0-0--3-3-3-3-3-3-|

B-----3-3---3-2---2h3---|-1-1-1-1-1-1--3-3-3-3-3-3-|

G---2-------0-2---2-2---|-0-0-0-0-0-0--0-0-0-0-0-0-|

D-0-------------2-------|-2-2-2-2-2-2--0-0-0-0-0-0-|

A-----------------------|-3-3-3-3-3-3--2-2-2-2-2-2-|

E---------3-------------|--------------3-3-3-3-3-3-|

CHORUS

  A       D      |G

E-0-0-0-0-2-2-2-2-3-3-3-3-3-3-3-3-|

B-2-2-2-2-3-3-3-3-3-3-3-3-3-3-3-3-|

G-2-2-2-2-2-2-2-2-0-0-0-0-0-0-0-0-|

D-2-2-2-2-0-0-0-0-0-0-0-0-0-0-0-0-|

A-0-0-0-0---------2-2-2-2-2-2-2-2-|

E-----------------3-3-3-3-3-3-3-3-|

INTERLUDE:

  A        G        D        C

E-0-0-0-0--3-3-3-3--2-2-2-2--0-0-0-0-|

B-2-2-2-2--3-3-3-3--3-3-3-3--1-1-1-1-|

G-2-2-2-2--0-0-0-0--2-2-2-2--0-0-0-0-|

D-2-2-2-2--0-0-0-0--0-0-0-0--2-2-2-2-|

A-0-0-0-0--2-2-2-2-----------3-3-3-3-|

E----------3-3-3-3-------------------|

The verse riff is pretty easy once you get the hang of it.

abuse, praise, comments and/or corrections

fender137@yahoo.com.au

Get this song at:  amazon.com sheetmusicplus.com

Share your thoughts

0 Comments found