Killing Heidi

Killing Heidi - Weir guitar tab

Killing Heidi- "Weir" (acoustic)

(Transcribed by zray@hotmail.com)

G'day mate! This song is from an Australian band "Killing Heidi" which i predict will

go far...This song is fairly easy to play. Listen to the song to get your

rhythem.

Standard Tuning

D x00232

G 320033

Esus4 022200

INTRO(play 2x) & Verses(play 8x)

D

e----------2--0----0------0-----0--0-----0-----

B----------3--3----3------3--P--0--0--H--3-----

G------2------------------2-----2--2-----2-----

D---0------------------------------------------

A----------------------------------------------

E----------------------3-----------------------

PRE-CHORUS(play 1x)

G

Wier .......................... Will..........................you...

e-------3---3---3---3---3---3---------------------3----3---3---3---3---3------

B-------3---3---3---3---3---3---------------------3----3---3---3---3---3------

G-------0---0---0---0---0---0---------------------0----0---0---0---0---0------

D-----------0---0---0---0---0------0----0----0----0----0---0---0---0---0------

A-----------2---2---2---2---2------2----2----2----2----2---2---2---2---2------

E---3-------3---3---3---3---3------0----0----0----0----0---0---0---0---0------

^ ^

|Play with skip|

CHORUS

D

e-------------------0---0------2----2---2---2---2---2---2-----

B-------------------0---0------3----3---3---3---3---3---3-----

G---2---2---2-------2---2------2----2---2---2---2---2---2-----

D---2---2---2-------2---2------0----0---0---0---0---0---0-----

A---2---2---2-------2---2------0----0---0---0---0---0---0-----

E-------------------0---0------0----0---0---0---0---0---0-----

^ ^

|Play with skip|

e--------------------3---3----3----3----3----3----3----3------

B--------------------3---3----3----3----3----3----3----3------

G--------------------0---0----0----0----0----0----0----0------

D---0----0----0------0---0----0----0----0----0----0----0------

A---2----2----2------2---2----2----2----2----2----2----2------

E---3----3----3------3---3----3----3----3----3----3----3------

^ ^

|Play with skip|

Bridge

e---3----3----3----3---3---3----3--3--3--3--3-------

B---3----3----3----3---3---3----3--3--3--3--3-------

G---0----0----0----0---0---0----0--0--0--0--0-------

D---0----0----0----0---0---0----0--0--0--0--0-------

A---3----2----0----3---2---0----0--0--3--3--2-------

E---------------------------------------------------

Any comments , questions and corrections feel free to contact me

Get this song at:  amazon.com sheetmusicplus.com

Share your thoughts

0 Comments found