Killing Heidi

Killing Heidi - Superstar guitar tab

song: superstar

artist: killing heidi

from forthcoming album: REFLECTOR

the verses are just the E chord moving up

the fret board, but make sure you play all

the rest of the strings open.

INTRO AND VERSES:

(E)

e---0---------0------------0------------0---------------

B---0---------0------------0------------0--------------

G---1---------3------------6------------6--------------

D---2---------4------------7------------7--------------

A---2---------4------------7------------7--------------

E---0---------0------------0------------0---------------

v.1

she wants to take it by

and she tries and tries so hard

i see her with her new shoes and make up on

and she'll have to make it up, make it up,

make it up.

CHORUS:

A B A B

she'll make it up, (la da da daya.....)

A B A B

she'll make it up, (la da da daya.....)

v.2

now i see her, standing in that light

and its not quite the perfect light

cos she's got, gota put on the face you know

but in that, empty space, empty space

empty space she'll go

CHORUS:

A B A B

between her ears, (la da da daya...)

A B A B

between hers ears, (la da da daya....)

A B A B (back to intro)

she's ????? you!

GUITAR SOLO:

e---0-----0------0--------0-----0---------------------------

B---3-----3------3--------3-----3--------------------------

G---2-----2------2--------2-----2--------1-----1-------1

D---3-----2------2--------3-----5--------2-----0-------2

A--------------------------------------------2-----2-------2

E--------------------------------------------0-----0-------0

*listen to recording for correct timing and

stumming pattern

v.3

and she doesnt know i think

that she'll steal that pretty ring

pretty ring, pretty ring...

CHORUS:

A B A B

her malborough hands, (la da da daya....)

A B A B

her malborough hands, (la da da daya....)

A B A B (back to intro

and she'll stand, (la da da daya....) in that light

INTRO:

she'll waist her time

she's willing to, for you... (la da da daya...)

Get this song at:  amazon.com sheetmusicplus.com

Share your thoughts

0 Comments found