Killing Heidi

Killing Heidi - I Am guitar tab

Artist: Killing Heidi

Song: I Am

Tabber: Brad Holder

Notes: It’s in Eb so a Cm pentatonic scale will work well. I’m not to sure on the intro

these chords will work. Enjoy, Brad

Intro:

Cm Eb F

Cm Ab Bb

Guitar 2: (listen to cd for this part. Repeat as needed.)

e----------|

B-16-------|

G-----17---|

D----------|

A----------|

E----------|

Guitar 1:

Cm Eb F

Cm Ab Bb

Guitar 2: (starts after guitar 1 has played the intro riff once)

e--------------------|----------------13------|

B-16-15-13-11-11-----|-16-15-13-11---------11-|

G--------------------|------------------------|x 2

D--------------------|------------------------|

A--------------------|------------------------|

E--------------------|------------------------|

Verse 1: (Both Guitars)

Cm Ebmaj7 F

I know, I know, I know, I know what you'd say

Cm Ab Bb

I know, I know, I know, I know all the games you play

Cm Ebmaj7 F

I am, I am, I am, I am not afraid cause

Cm Ab Bb

I know, I know, I know, I know what to say

Prechorus: (Both Guitars)

Cm Eb F

I feel it, its coming,

Cm Ab Bb

it's here if you want it

Chorus:

e-------------------------------------|

B-------------------------------------|

G-1-5--5--5--5—3-5--5--5--5-----------|

D-1-5--5--5--5—3-5--5--5—-5-----------|

A-1-3—-3--3--3—1-3--3--3--3-----------|

E-------------------------------------|

Bb C Bb C

I am,

I am, (2nd time)

e-------------------------------------|

B-------------------------------------|

G-8--8--8--8--10--10--10--10----------|

D-8--8--8--8--10--10--10--10----------|

A-6--6--6--6---8—-8—--8---8-----------|

E-------------------------------------|

Eb F

Out on my own,

Standing Alone (2nd time)

e-------------------------------------|

B-------------------------------------|

G-1-5--5--5--5—3-5--5--5--5-----------|

D-1-5--5--5--5—3-5--5--5—-5-----------| x 2

A-1-3—-3--3--3—1-3--3--3--3-----------|

E-------------------------------------|

Bb C Bb C

Moving in shadow,

And it's me but you can't see who, (2nd time)

e-------------------------------------|

B-------------------------------------|

G-8--8--8--8--10--10--10--10----------|

D-8--8--8--8--10--10--10--10----------|

A-6--6--6--6---8—-8—--8---8-----------|

E-------------------------------------|

Eb F

Nobody knows who,

I am (2nd time)

Verse 2: (Both Guitars)

Cm Ebmaj7 F

I'd like to rip you out of your skin

Cm Ab Bb

I'd switch us around and put you back in

Cm Ebmaj7 F

And I know, I know, I know, I know what to say

Cm Ab Bb

But it couldn't be any other way

Prechorus:

Cm Ebmaj7 F

I feel it, its coming,

Cm Ab Bb

it's here if you want it

Chorus:

e-------------------------------------|

B-------------------------------------|

G-1-5--5--5--5—3-5--5--5--5-----------|

D-1-5--5--5--5—3-5--5--5--5-----------|

A-1-3—-3--3--3—1-3--3--3--3-----------|

E-------------------------------------|

Bb C Bb C

I am,

I am, (2nd time)

e-------------------------------------|

B-------------------------------------|

G-8--8--8--8--10--10--10--10----------|

D-8--8--8--8--10--10--10--10----------|

A-6--6--6--6---8—-8—--8---8-----------|

E-------------------------------------|

Eb F

Out on my own,

Standing Alone (2nd time)

e-------------------------------------|

B-------------------------------------|

G-1-5--5--5--5—3-5--5--5--5-----------|

D-1-5--5--5--5—3-5--5--5—-5-----------| x 2

A-1-3—-3--3--3—1-3--3--3--3-----------|

E-------------------------------------|

Bb C Bb C

Moving in shadow,

And it's me but you can't see who, (2nd time)

e-------------------------------------|

B-------------------------------------|

G-8--8--8--8--10--10--10--10----------|

D-8--8--8--8--10--10--10--10----------|

A-6--6--6--6---8—-8—--8---8-----------|

E-------------------------------------|

Eb F

Nobody knows who, I am (2nd time)

C B

So close but you don't know, and it's me but you can't see

Bb A

So close but you don't know, and it's me but you can't see

C B

So close but you don't know, and it's me but you can't see

Bb A

So close but you don't know, and it's me but you can't see

C B

So close but you don't know, and it's me but you can't see

Bb A

So close but you don't know, and it's me but you can't see

C Ab Bb C Ab Bb

I feel it it's coming, it's here if you want it

Chorus:

e-------------------------------------|

B-------------------------------------|

G-1-5--5--5--5—3-5--5--5--5-----------|

D-1-5--5--5--5—3-5--5--5—-5-----------|

A-1-3—-3--3--3—1-3--3--3--3-----------|

E-------------------------------------|

Bb C Bb C

I am,

I am, (2nd time)

e-------------------------------------|

B-------------------------------------|

G-8--8--8--8--10--10--10--10----------|

D-8--8--8--8--10--10--10--10----------|

A-6--6--6--6---8—-8—--8---8-----------|

E-------------------------------------|

Eb F

Out on my own,

Standing Alone (2nd time)

e-------------------------------------|

B-------------------------------------|

G-1-5--5--5--5—3-5--5--5--5-----------|

D-1-5--5--5--5—3-5--5--5—-5-----------| x 2

A-1-3—-3--3--3—1-3--3--3--3-----------|

E-------------------------------------|

Bb C Bb C

Moving in shadow,

And it's me but you can't see who, (2nd time)

e-------------------------------------|

B-------------------------------------|

G-8--8--8--8--10--10--10--10----------|

D-8--8--8--8--10--10--10--10----------|

A-6--6--6--6---8—-8—--8---8-----------|

E-------------------------------------|

Eb F

Nobody knows who,

I am (2nd time)

Outro:

C

So close but you don't know,

Eb F

And it's me but you're never gonna see who I am

C

So close but you don't know,

Eb F

And it's me but you just can't see who I am

There’s a little Outro Riff that guitar 2 plays. From what I can hear, it goes a bit

this:

(note: br means bend and release)

e-------------------|-----------------------|

B----11-------------|------11---------------|

G--br10--8----------|----br10--8--10--------|

D-----------10------|-----------------------|

A-------------------|-----------------------|

E-------------------|-----------------------|

And that’s it. Have fun learning it. Enjoy!Added by tabs-database.com and our distinguished partners

Get this song at:  amazon.com sheetmusicplus.com

Share your thoughts

0 Comments found