Killing Heidi

Black Sheep Tabs



More from Killing Heidi

Killing Heidi Tabs
Killing Heidi Chords
Killing Heidi Bass
Killing Heidi Lyrics

Song: Black Sheep (Acoustic)
Artist: Killing Heidi
Album: Reflector

Tabbed By: (Strider) Daniel King 
Email: DJK_Killing_Heidi@hotmail.com 

Standard Tuning
E A D G B e

~-vibrato
b-bend
p-pull off
h-hammer on
^-palm mute
r-release hand preventing a ring out
d- dub-out
/-Slide

ACOUSTIC

Intro (x4)
  C      G    Am     F
e-----0----3--0-0-0--1-1-1-------| 
B-----1----3--1-1-1--1-1-1-------| 
G-0-0-0--0-0--2-2-2--3-3-3-------|
D-2-2-2--0-0--2-2-2--2-2-2-------|
A-3-3-3--2----0-0-0--2-2-2-------|
E--------3-----------------------|
Will you walk from what we've got...
Will you walk from what we've got?

Verse 1 (x8)
  C      G    Am     F
e-------------0---0-------1------| 
B-----1-------1-1---------1------| 
G-----0----0--2---------2--------|
D---2------0----------3----------|
A-3------x----------3------------|
E--------3-----------------------|
Walk through the long dry grass, past the trees and then on past, all 
the places we have been before.
Through the tracks the sheep have made, past the dam and into the shade. You can see the other towns from here.

Chorus (As with Introduction)
Will you walk from what we've got...
Will you walk from what we've got?

Verse 2 (As with Verse 1)
And as you walk back down. You know that's where you wanna be found.
It always makes you feel that way. Now as you wonder why, these things sometimes pass us by. So would you throw it all away?

Ending 
  C      G    Am     F
e-----0----3--0-0-0--1-1-1-------| 
B-----1----3--1-1-1--1-1-1-------| 
G-0-0-0--0-0--2-2-2--3-3-3-------|(x6)
D-2-2-2--0-0--2-2-2--2-2-2-------|
A-3-3-3--2----0-0-0--2-2-2-------|
E--------3-----------------------|

  C      G    Am
e-----0----3--0------------------| 
B-----1----3--1------------------| 
G-0-0-0--0-0--2-let ring---------|
D-2-2-2--0-0--2------------------|
A-3-3-3--2----0------------------|
E--------3-----------------------|
Will you walk from what we've got...
Will you walk from what we've got?
I say will you walk from what we've got...
Will you walk from what we've got?

Song Structure
Intro
Verse 1
Chorus
Verse 2
Ending
Get this song at amazon.com      Ebay     Ringtones Ringtones  


Learn to play: Songwriting, Piano, Harmonica, Guitar
Also available at Muzikum: Killing Heidi - Black Sheep lyrics

Related Killing Heidi Tabs

Live Without It tabs
Tomorrow tabs
A Jar Labelled Small tabs
Class Celebrities tabs
Mascara 2 tabs
Weir tabs
Weir2 tabs
Superman tabs
Jons Song tabs
Astral Boy tabs
Weir (Acoustic) tabs
Real People tabs
Mascara tabs
I Am tabs
Kettle tabs
Leave Me Alone tabs
Astral Boy2 tabs
You Dont Know tabs
Black Sheep tabs
Superstar tabs


Guitar Tabs









All tabs are property and copyright of their owners. All tabs provided for educational purposes only. Privacy Policy, DMCA